Afi - Crop Tub Chords & Tabs

 

Crop Tub Chords & Tabs

Afi Chords & Tabs

Version: 1 Type: Tab 0 ratings
1 star 2 stars 3 stars 4 stars 5 stars
comments

Crop Tub Tab

   
AFI- CROP TUB
   A Quick Tab...
danc446@yahoo.com

Intro:
e|----------------------------------------------------------|
B|----------------------------------------------------------|
G|-----6-6-----6------6-6-----6-----6-6---6---------6-6-6-6-|
D|-8-8-6-6-8-8-6--8-8-6-6-8-8-6-8-8-6-6-8-6-8-8-8-8-6-6-6-6-|
A|-8-8-4-4-8-8-4--8-8-4-4-8-8-4-8-8-4-4-8-4-8-8-8-8-4-4-4-4-|
E|-6-6-----6-6-4--6-6-4-4-6-6---6-6-----6-4-6-6-6-6---------|

Verse:

e|------------------------------------------------------------|
B|------------------------------------------------------------|
G|-6-6-6-6-----9-6-6-6-6-----9--6-6-6-6-----9-6-6-6-6-9-9-9-9-|
D|-6-6-6-6-8-6-9-6-6-6-6-8-6-9--6-6-6-6-8-6-9-6-6-6-6-9-9-9-9-|
A|-4-4-4-4-8-6-7-4-4-4-4-8-6-7--4-4-4-4-8-6-7-4-4-4-4-7-7-7-7-|
E|---------6-4-----------6-4----4-4-4-4-6-4-----------0-0-0-0-|
[ Tab from: http://www.guitartabs.cc/tabs/a/afi/crop_tub_tab.html ]
Chorus:
e|---------------------------------------------------------
B|---------------------------------------------------------
G|-6-6-6-6-8-8-8-8-6-6-6-6-9-9-9-9-6-6-6-6-6/8-8-8-9-8-9-8-
D|-6-6-6-6-8-8-8-8-6-6-6-6-9-9-9-9-6-6-6-6-8-8-8-8-9-8-9-8-
A|-4-4-4-4-6-6-6-6-4-4-4-4-7-7-7-7-4-4-4-4-6-6-6-6-7-6-7-6-
E|---------------------------------------------------------

e|---------------------------------------------------------|
B|---------------------------------------------------------|
G|-6-6-6-6-8-8-8-8-6-6-6-6-9-8-6-8-6-6-6-6-8-8-8-8-9-8-9-8-|
D|-6-6-6-6-8-8-8-8-6-6-6-6-9-8-6-8-6-6-6-6-8-8-8-8-9-8-9-8-|
A|-4-4-4-4-6-6-6-6-4-4-4-4-7-6-4-6-4-4-4-4-6-6-6-6-7-6-7-6-|
E|---------------------------------------------------------|

Bridge:
e|-----------------------0-0-0-0-|
B|-----------------------0-0-0-0-|
G|-----------------------9-9-9-9-|
D|-8-8-8-8-8-8-8-8-6-4-4-9-9-9-9-|
A|-8-8-8-8-8-8-8-8-6-4-4-7-7-7-7-|
E|-6-6-6-6-6-6-6-6-4-2-2-0-0-0-0-|
_____________________________________________________________________
Comments