Afi - Cereal Wars Chords & Tabs

 

Cereal Wars Chords & Tabs

Afi Chords & Tabs

Version: 2 Type: Tab 0 ratings
1 star 2 stars 3 stars 4 stars 5 stars
comments

Cereal Wars Tab

AFI - CEREAL WARS from the album: ANSWER THAT AND STAY FASHIONABLE (1996 Nitro Records, 
Wingnut Records)
tabbed by Jori Apedaile

Tuning: Standard


Intro: (let the intro notes ring)
e ------------------------------------------------------------------------|
B ------------------------------------------------------------------------|
G ----0-----0-----0-----0-----------------------------0-----0-----0-----0-|
D --2-----2-----2-----2-------0-----0-----0-----0---2-----2-----2-----2---|
A 3-----3-----3-----3-------2-----2-----2-----2---3-----3-----3-----3-----|
E ------------------------3-----3-----3-----3-----------------------------|

e -----------------|
B -----------------|
G -------------0---|
D ----0-----0------|
A --2-----2--------|
E 3-----3----------|

pre verse and verse: (pre verse 2x and verse 2x)
e ---------------------------|
B ---------------------------|
G ---------------------------|
D ----9-9---11-----------9---|
A 9-9-7-7-9-9--9-7-7-9-9-7---|
E 7-7-----7----7-5-5-7-7-----|

[ Tab from: http://www.guitartabs.cc/tabs/a/afi/cereal_wars_tab_ver_2.html ]
Chorus: play the following 2 times
e --------------------------------------------------------------------------|
B --------------------------------------------------------------------------|
G --------------------------------------------------------------------------|
D --------------------------------------------------------------------------|
A 9-9-9-9-7-9-9-9-9-9-9-9-12-9-12---9-9-9-9-7-9-9-9-10-10-10-10-10-10-10-10-|
E 7-7-7-7-5-7-7-7-7-7-7-7-10-7-10---7-7-7-7-5-7-7-7-8--8--8--8--8--8--8--8--|


Post-Chorus:
e -------------------------             --------------------------------|
B -------------------------             --------------------------------|
G -------------------------             --------------------------------|
D ----9-9---11-------------    X2 then: 9-9-9-9-9-9-9-9-9-9-9-9-9-9-9-9-|
A 9-9-7-7-9-9--9-7-7-9-9-7-             7-7-7-7-7-7-7-7-7-7-7-7-7-7-7-7-|
E 7-7-----7----7-5-5-7-7---             --------------------------------|

Then immediately go back and play the pre-verse,the verse, the chorus, then the 
and end on this:
e -----
B -----
G -----
D -----
A 9\\\-
E 7\\\-

That's it!
Any qestions or comments? Email me at apedailejw@gaggle.net
                       ENJOY!            AFI rules!
Comments