Afi - But Home Is Nowhere Chords & Tabs

 

But Home Is Nowhere Chords & Tabs

Afi Chords & Tabs

Version: 1 Type: Tab 0 ratings
1 star 2 stars 3 stars 4 stars 5 stars
comments

But Home Is Nowhere Tab

   
AFI - ...But home is nowhere
Tabbed by kyle seitz
Tuning: Standard (E A D G B E)
for intro play main riff plam muted 
somebody put this riff under the leaving song, and I believe that It belongs here enjoy, but I tabbed   /   the rest by myself. Have fun. Theres more, I just haven’t found it!!!
              /
             /
e|-----------------------------------------------------------------
b|-----------------------------------------------------------------
g|-----------------------------------------------------------------
D|-5-5-5-5-5-5-5-5-5-5-5-5-5-5-5-5-8-8-8-8-8-8-8-8-3-3-3-3-7-7-7-7-
a|-----------------------------------------------------------------
E|-----------------------------------------------------------------

GUITAR 2 (AFTER 1ST VERSE AND RIFF)
e|-----------------------------------------------------------------
b|-5-4-4-8-7-6-----------------------------------------------------
g|-4-3-3-7-6-5-----------------------------------------------------
d|-5-4-4-8-7-6-----------------------------------------------------
a|-----------------------------------------------------------------
E|-----------------------------------------------------------------
[ Tab from: http://www.guitartabs.cc/tabs/a/afi/but_home_is_nowhere_tab.html ]
chorus
e|---------------------------------------------------------------------------||
B|---------------------------------------------------------------------------||
G|---------------------------------------------------------------------------||
D|-7--2--4-------------------------------------------------------------------||
A|-7--2--4------listen to song for rhythm------------------------------------||
E|-5-----2-------------------------------------------------------------------||


GUITAR 2 (ON LAST NOTE OF GUITAR 1)
e|-----------------------------------------------------------------
b|-----------------------------------------------------------------
g|-----------------------------------------------------------------
d|--0---0----------------------------------------------------------
a|---0-0-----------------------------------------------------------
E|-0------0---------------------------------------------------------
other riff

e|-----------------------------------------------------------------------------||
B|-----------------------------------------------------------------------------||
G|-----------------------------------------------------------------------------||
D|-7777777---9--9--9--9--9--9--9---11-11-11-11-11-11-11---12-12-12-12-12-12-12-||
A|-9999999---11 11 11 11 11 11 11--12 12 12 12 12 12 12---14 14 14 14 14 14 14-||
E|-----------------------------------------------------------------------------||

SLOWER THAN AT THE BEGINNING
e|-----------------------------------------------------------------
b|-----------------------------------------------------------------
G|-6-6-6-6-6-6-6-6-6-6-6-6-6-6-6-6-9-9-9-9-9-9-9-9-4-4-4-4-8-8-8-8-
D|-5-5-5-5-5-5-5-5-5-5-5-5-5-5-5-5-8-8-8-8-8-8-8-8-3-3-3-3-7-7-7-7-
A|-5-5-5-5-5-5-5-5-5-5-5-5-5-5-5-5-8-8-8-8-8-8-8-8-3-3-3-3-7-7-7-7-
E|-----------------------------------------------------------------
Comments