Afi - But Home Is Nowhere Chords & Tabs

 

But Home Is Nowhere Chords & Tabs

Afi Chords & Tabs

Version: 1 Type: Bass Tab 0 ratings
1 star 2 stars 3 stars 4 stars 5 stars
comments

But Home Is Nowhere Bass Tab

   
#----------------------------------PLEASE NOTE---------------------------------#
#This file is the author's own work and represents their interpretation of the-#
#song. You may only use this file for private study, scholarship, or research.-#
#------------------------------------------------------------------------------#

AFI - But Home Is Nowhere
Submitted By: Sqweeky
EMail: Blindside831@aol.com
Album: Sing The Sorrow
Bassist: Hunter
Tuning: Half a Step Down

Intro
G|----------------|
D|----------------|
A|-10>-13>-8>-12>-|
E|----------------|

Verse
G----------------------------------------------------|
D|---------------------------------------------------|
A|------1--------1---1-1-1-1-1-1-1-1---------0-0-0-0-|
E|-3-3----3-3-3-3--3-----------------1-1-1-1---------|

G|--------------------------|
D|--------------------------|
A|-----1---------1----------|
E|-3-3---3-3-3-3---3-1-1-3~-|
[ Tab from: http://www.guitartabs.cc/tabs/a/afi/but_home_is_nowhere_btab.html ]
Chorus
G|----------------------------------|-------------|----------------|
D|----------------------------------|-10-8-10-8-7-|-13-13-13-12-10-|
A|-1-1-1-1-----------10-10-12-10-12-|-------------|----------------|
E|---------1-1-1-1-1----------------|-------------|----------------|

Chorus ending
G|--------------12>-|
D|------------------|
A|-1~-1/12~-10>-----|
E|------------------|

Preverse
G|---------------------------------|
D|---------------------------------|
A|----5>-8>-3>-5>-10>-8>-333-111-0-|
E|-3>------------------------------|

Verse

Right before bridge
E|-6/0-|

Bridge
G|---------------|----------|--------|
D|---------------|----------|--------|
A|-/10>-8>-6>-3>-|-3333-1-0-|----/10-|
E|---------------|----------|-3>/----|

Hardcore bridge part
G|-------------------------------|
D|-------------------------------|
A|-------3-3-3-0-----------------|
E|-3-3-3---------2-2-0-2-3-3-3-2-|

G|-----------------------------------------|
D|-----------10-10-10-8--------------------|
A|-/10-10-10------------9-9-7-9-10-10-10-7-|
E|-----------------------------------------|

-Chorus

Post Chorus
G|----------------|
D|----------------|
A|-/13>-/15>-/17>-|
E|----------------|

-chorus

Ending
G|--------------|
D|--------------|
A|-13~-/12~-10~-|
E|--------------|
Comments