Afi - Bleed Black Chords & Tabs

 

Bleed Black Chords & Tabs

Afi Chords & Tabs

Version: 6 Type: Tab 0 ratings
1 star 2 stars 3 stars 4 stars 5 stars
comments

Bleed Black Tab

Bleed Black
1/2 step down

I am not saying this is perfect, but it is really close. I have the parts you can hear
unless you try really hard so some notes may look out of place, but it is right.

Guitar 1
-|-----------------------|-------------------------------------------------------------|
-|-----------------------|-------------------------------------------------------------|
-|-7---7---7-7---7-------|-10---10---10-10---10---9---9---9-9---9---7---7---7-7---7----|
-|---9---9-----9---9-----|----9----9-------9----9---9---9-----9---9---9---9-----9---9--|
-|--------------------x4-|-------------------------------------------------------------|
-|-----------------------|-------------------------------------------------------------|
Guitar 1
-|-------------------------------------------------------------|
-|-------------------------------------------------------------|
-|-9---9---9-9---9---10---10---10-10---10---7---7---7-7---7----|
-|---9---9-----9---9----9----9-------9----9---9---9-----9---9--|
-|-------------------------------------------------------------|
-|-------------------------------------------------------------|


Guitar 2
-|----------------------------------|
-|----------------------------------|
-|-2-2-2-2-2-2-2-2-2-2-2-2-2-2-2-2--|
-|-2-2-2-2-2-2-2-2-2-2-2-2-2-2-2-2--|
-|-0-0-0-0-0-0-0-0-0-0-0-0-0-0-0-0--|
-|----------------------------------|

Guitar 1&2
-|---------------------------------------------------|-------------------------|
-|---------------------------------------------------|-------------------------|
-|---9-9---7-7-7-7-7-7-7---9-9---5-5-5-5-5-5-5-5-----|---9------9------9-------|
-|---7-7---5-5-5-5-5-5-5---7-7---3-3-3-3-3-3-3-3-----|-----10-----10-----10----|
-|-0-0-0-0-0-0-0-0-0-0-0-0-0-0-0-0-0-0-0-0-0-0-0--x2-|-8------8------8------8--|
-|---------------------------------------------------|-------------------------|
Guitar 1&2
-|---------------------------------------------------|-------------------------|
-|---------------------------------------------------|-----------------8-------|
-|---9-9---7-7-7-7-7-7-7---9-9---5-5-5-5-5-5-5-5-----|---9------9--------------|
-|---7-7---5-5-5-5-5-5-5---7-7---3-3-3-3-3-3-3-3-----|-----10-----10-----10----|
-|-0-0-0-0-0-0-0-0-0-0-0-0-0-0-0-0-0-0-0-0-0-0-0--x2-|-8------8------8------8--|
-|---------------------------------------------------|-------------------------|
Guitar 1&2
-|---------------------------------------------------|-------------|
-|---------------------------------------------------|----------8--|
-|---9-9---7-7-7-7-7-7-7---9-9---5-5-5-5-5-5-5-5-----|---9---------|
-|---7-7---5-5-5-5-5-5-5---7-7---3-3-3-3-3-3-3-3-----|-----10------|
-|-0-0-0-0-0-0-0-0-0-0-0-0-0-0-0-0-0-0-0-0-0-0-0--x2-|-8------8----|
-|---------------------------------------------------|-------------|


Guitar 2
-|--------------------------|
-|--------------------------|
-|--------------------------|
-|-3-3-3-3-3-3-5-5-5-5-5-5--|
-|-3-3-3-3-3-3-5-5-5-5-5-5--|
-|-1-1-1-1-1-1-3-3-3-3-3-3--|

Guitar 1
-|------------------------|--------------|
-|------------------------|-------5-5-5--|
-|------------------------|-------5-5-5--|
-|-10-10-10-0-5-2-2-2-----|-3-3-3-3-3-3--|
-|-8--8--8--0-3-0-0-0--x2-|-3-3-3--------| x2
-|------------------------|-1-1-1--------|


Guitar 2
-|--------------------------|
-|--------------------------|
-|-12-12-12-12-14-14-14-14--|
-|-9--9--9--9--12-12-12-12--|
-|-0--0--0--0--0--0--0--0---|
-|--------------------------|


Guitar 1&2
-|----------------------------------------------------------------------------------------|
-|----------------------------------------------------------------------------------------|
-|-5-5-5-0-----------------------2-2-2-2-2-2-2-2-5-5-5-0----------------------------------|
-|-5-5-5-0-5-5-5-5-5-5---3-3-3---2-2-2-2-2-2-2-2-5-5-5-0-5-5-5-5-5-5-7-7-9-9-10-10-12-12--|
-|-3-3-3-0-5-5-5-5-5-5---3-3-3---0-0-0-0-0-0-0-0-3-3-3-0-5-5-5-5-5-5-0-0-0-0-0--0--0--0---|
-|---------3-3-3-3-3-3-0-1-1-1-0-------------------------3-3-3-3-3-3----------------------|
Guitar 1&2
-|--------------------------------------------------------------------|
-|--------------------------------------------------------------------|
-|-5-5-5-0-----------------------2-2-2-2-2-2-2-2-5-5-5-0--------------|
-|-5-5-5-0-5-5-5-5-5-5---3-3-3---2-2-2-2-2-2-2-2-5-5-5-0-5-5-5-5-5-5--|
-|-3-3-3-0-5-5-5-5-5-5---3-3-3---0-0-0-0-0-0-0-0-3-3-3-0-5-5-5-5-5-5--|
-|---------3-3-3-3-3-3-0-1-1-1-0-------------------------3-3-3-3-3-3--|
Guitar 1&2
-|-----------------------------|
-|-----------------------------|
-|-----------------------------|
-|-10-10-10-------5-5-2-2-2-2--|
-|-8--8--8--0-0-0-3-3-0-0-0-0--|
-|-----------------------------|

Guitar 1&2
-|---------------------------------------------------|-------------------------|
-|---------------------------------------------------|-------------------------|
-|---9-9---7-7-7-7-7-7-7---9-9---5-5-5-5-5-5-5-5-----|---9------9------9-------|
-|---7-7---5-5-5-5-5-5-5---7-7---3-3-3-3-3-3-3-3-----|-----10-----10-----10----|
-|-0-0-0-0-0-0-0-0-0-0-0-0-0-0-0-0-0-0-0-0-0-0-0--x2-|-8------8------8------8--|
-|---------------------------------------------------|-------------------------|
Guitar 1&2
-|---------------------------------------------------|-------------------------|
-|---------------------------------------------------|-----------------8-------|
-|---9-9---7-7-7-7-7-7-7---9-9---5-5-5-5-5-5-5-5-----|---9------9--------------|
-|---7-7---5-5-5-5-5-5-5---7-7---3-3-3-3-3-3-3-3-----|-----10-----10-----10----|
-|-0-0-0-0-0-0-0-0-0-0-0-0-0-0-0-0-0-0-0-0-0-0-0--x2-|-8------8------8------8--|
-|---------------------------------------------------|-------------------------|
Guitar 1&2
-|---------------------------------------------------|-------------|
-|---------------------------------------------------|----------8--|
-|---9-9---7-7-7-7-7-7-7---9-9---5-5-5-5-5-5-5-5-----|---9---------|
-|---7-7---5-5-5-5-5-5-5---7-7---3-3-3-3-3-3-3-3-----|-----10------|
-|-0-0-0-0-0-0-0-0-0-0-0-0-0-0-0-0-0-0-0-0-0-0-0--x2-|-8------8----|
-|---------------------------------------------------|-------------|


Guitar 2
-|--------------------------|
-|--------------------------|
-|--------------------------|
-|-3-3-3-3-3-3-5-5-5-5-5-5--|
-|-3-3-3-3-3-3-5-5-5-5-5-5--|
-|-1-1-1-1-1-1-3-3-3-3-3-3--|

Guitar 1
-|------------------------|--------------|
-|------------------------|-------5-5-5--|
-|------------------------|-------5-5-5--|
-|-10-10-10-0-5-2-2-2-----|-3-3-3-3-3-3--|
-|-8--8--8--0-3-0-0-0--x2-|-3-3-3--------| x2
-|------------------------|-1-1-1--------|


Guitar 2
-|--------------------------|
-|--------------------------|
-|-12-12-12-12-14-14-14-14--|
-|-9--9--9--9--12-12-12-12--|
-|-0--0--0--0--0--0--0--0---|
-|--------------------------|

[ Tab from: http://www.guitartabs.cc/tabs/a/afi/bleed_black_tab_ver_6.html ]
Guitar 1&2
-|----------------------------------------------------------------------------------------|
-|----------------------------------------------------------------------------------------|
-|-5-5-5-0-----------------------2-2-2-2-2-2-2-2-5-5-5-0----------------------------------|
-|-5-5-5-0-5-5-5-5-5-5---3-3-3---2-2-2-2-2-2-2-2-5-5-5-0-5-5-5-5-5-5-7-7-9-9-10-10-12-12--|
-|-3-3-3-0-5-5-5-5-5-5---3-3-3---0-0-0-0-0-0-0-0-3-3-3-0-5-5-5-5-5-5-0-0-0-0-0--0--0--0---|
-|---------3-3-3-3-3-3-0-1-1-1-0-------------------------3-3-3-3-3-3----------------------|
Guitar 1&2
-|--------------------------------------------------------------------|
-|--------------------------------------------------------------------|
-|-5-5-5-0-----------------------2-2-2-2-2-2-2-2-5-5-5-0--------------|
-|-5-5-5-0-5-5-5-5-5-5---3-3-3---2-2-2-2-2-2-2-2-5-5-5-0-5-5-5-5-5-5--|
-|-3-3-3-0-5-5-5-5-5-5---3-3-3---0-0-0-0-0-0-0-0-3-3-3-0-5-5-5-5-5-5--|
-|---------3-3-3-3-3-3-0-1-1-1-0-------------------------3-3-3-3-3-3--|
Guitar 1&2
-|--------------------------------|
-|--------------------------------|
-|--------------------------------|
-|-10-10-10-------5-5-2-2-2-2-----|
-|-8--8--8--0-0-0-3-3-0-0-0-0-----|
-|--------------------------------|

Guitar 1
-|--------------------------------------------------------------------------------------|
-|--------------------------------------------------------------------------------------|
-|-------------------------------------7-7-7-7-7-7-------------5-5-5-5-5----------------|
-|-7-7-7-7-7-7-7-7-7-7-7-7-5-5-5-5-5-5-7-7-7-7-7-7-3-3-3-3-3-3-5-5-5-5-5-0-2-2-2-2-2-2--|
-|-7-7-7-7-7-7-7-7-7-7-7-7-5-5-5-5-5-5-5-5-5-5-5-0-3-3-3-3-3-3-3-3-3-3-3-0-2-2-2-2-2-2--|
-|-5-5-5-5-5-0-4-4-4-4-4-0-3-3-3-3-3-0-------------1-1-1-1-1-0-------------0-0-0-0-0-0--|
Guitar 1
-|---5----------|
-|-----5--------|
-|-------5------|
-|---------7----|
-|-----------7--|
-|-5------------|
Guitar 1
-|--------------------------------------------------------------------------------------|
-|--------------------------------------------------------------------------------------|
-|-------------------------------------7-7-7-7-7-7-------------5-5-5-5-5----------------|
-|-7-7-7-7-7-7-7-7-7-7-7-7-5-5-5-5-5-5-7-7-7-7-7-7-3-3-3-3-3-3-5-5-5-5-5-0-2-2-2-2-2-2--|
-|-7-7-7-7-7-7-7-7-7-7-7-7-5-5-5-5-5-5-5-5-5-5-5-0-3-3-3-3-3-3-3-3-3-3-3-0-2-2-2-2-2-2--|
-|-5-5-5-5-5-0-4-4-4-4-4-0-3-3-3-3-3-0-------------1-1-1-1-1-0-------------0-0-0-0-0-0--|
Guitar 1
-|---5----------|
-|-----5--------|
-|-------5------|
-|---------7----|
-|-----------7--|
-|-5------------|
Guitar 1
-|--------------------------------------------------------------------------------------|
-|--------------------------------------------------------------------------------------|
-|-------------------------------------7-7-7-7-7-7-------------5-5-5-5-5----------------|
-|-7-7-7-7-7-7-6-6-6-6-6-6-5-5-5-5-5-5-7-7-7-7-7-7-3-3-3-3-3-3-5-5-5-5-5-0-2-2-2-2-2-2--|
-|-7-7-7-7-7-7-6-6-6-6-6-6-5-5-5-5-5-5-5-5-5-5-5-0-3-3-3-3-3-3-3-3-3-3-3-0-2-2-2-2-2-2--|
-|-5-5-5-5-5-0-4-4-4-4-4-0-3-3-3-3-3-0-------------1-1-1-1-1-0-------------0-0-0-0-0-0--|


Guitar 2
-|----------------------------------------------------------------------------------------|
-|----------------------------------------------------------------------------------------|
-|---------------------7-----------------------5-5-5-5-5-5--------------------------------|
-|-7---7---5-----------7---7-7-7-0-3-3-3-3-3-3-5-5-5-5-5-5--------------------------------|
-|-7---7---5-----------5-5-5-5-5-0-3-3-3-3-3-3-3-3-3-3-3-0-2-2-2-12-12-12-11-11-11-9-9-9--|
-|-5---4---3-3-3-3-3-0-------------1-1-1-1-1-1-------------0-0-0-0--0--0--0--0--0--0-0-0--|

Guitar 1&2
-|----------------------------------------------------------------------------------------|
-|----------------------------------------------------------------------------------------|
-|---------------------7-----------------------5-5-5-5-5-5--------------------------------|
-|-7---7---5-----------7---7-7-7-0-3-3-3-3-3-3-5-5-5-5-5-5--------------------------------|
-|-7---7---5-----------5-5-5-5-5-0-3-3-3-3-3-3-3-3-3-3-3-0-2-2-2-12-12-12-11-11-11-9-9-9--|
-|-5---4---3-3-3-3-3-0-------------1-1-1-1-1-1-------------0-0-0-0--0--0--0--0--0--0-0-0--|


Guitar 1
-|-------------------------------------------------------------------------12---|
-|-------------------------------------------------------------------------12---|
-|-------------------------------------------------------------------------13---|
-|------8------8-----8-----8-------10-------10-------8-------8-----8-----8------|
-|---10-----10-----8-----8------10-------10-------10------10-----8-----8--------|
-|-9------9------9-----9-----11-------11-------10------10------9-----9----------|


Guitar 2
-|--------------------|
-|--------------------|
-|--------------------|
-|-9---9---9-9---9----|
-|---7---7-----7---7--|
-|--------------------|


Guitar 1
-|----------------------------|
-|----------------------------|
-|-2-2-2-2-2-2-2-2-2-2-2-2-2--|
-|-2-2-2-2-2-2-2-2-2-2-2-2-2--|
-|-0-0-0-0-0-0-0-0-0-0-0-0-0--|
-|----------------------------|

Guitar 1&2
-|----------------------------------------------------------------------------------------|
-|----------------------------------------------------------------------------------------|
-|-5-5-5-0-----------------------2-2-2-2-2-2-2-2-5-5-5-0----------------------------------|
-|-5-5-5-0-5-5-5-5-5-5---3-3-3---2-2-2-2-2-2-2-2-5-5-5-0-5-5-5-5-5-5-7-7-9-9-10-10-12-12--|
-|-3-3-3-0-5-5-5-5-5-5---3-3-3---0-0-0-0-0-0-0-0-3-3-3-0-5-5-5-5-5-5-0-0-0-0-0--0--0--0---|
-|---------3-3-3-3-3-3-0-1-1-1-0-------------------------3-3-3-3-3-3----------------------|
Guitar 1&2
-|--------------------------------------------------------------------|
-|--------------------------------------------------------------------|
-|-5-5-5-0-----------------------2-2-2-2-2-2-2-2-5-5-5-0--------------|
-|-5-5-5-0-5-5-5-5-5-5---3-3-3---2-2-2-2-2-2-2-2-5-5-5-0-5-5-5-5-5-5--|
-|-3-3-3-0-5-5-5-5-5-5---3-3-3---0-0-0-0-0-0-0-0-3-3-3-0-5-5-5-5-5-5--|
-|---------3-3-3-3-3-3-0-1-1-1-0-------------------------3-3-3-3-3-3--|
Guitar 1&2
-|--------------------------------|
-|--------------------------------|
-|--------------------------------|
-|-10-10-10-------5-5-2-2-2-2-----|
-|-8--8--8--0-0-0-3-3-0-0-0-0-----|
-|--------------------------------|


Guitar 1
-|----------------------------------------------------------------------------------------|
-|----------------------------------------------------------------------------------------|
-|-5-5-5-0-----------------------2-2-2-2-2-2-2-2-5-5-5-0----------------------------------|
-|-5-5-5-0-5-5-5-5-5-5---3-3-3---2-2-2-2-2-2-2-2-5-5-5-0-5-5-5-5-5-5-7-7-9-9-10-10-12-12--|
-|-3-3-3-0-5-5-5-5-5-5---3-3-3---0-0-0-0-0-0-0-0-3-3-3-0-5-5-5-5-5-5-0-0-0-0-0--0--0--0---|
-|---------3-3-3-3-3-3-0-1-1-1-0-------------------------3-3-3-3-3-3----------------------|
Guitar 1
-|--------------------------------------------------------------------|
-|--------------------------------------------------------------------|
-|-5-5-5-0-----------------------2-2-2-2-2-2-2-2-5-5-5-0--------------|
-|-5-5-5-0-5-5-5-5-5-5---3-3-3---2-2-2-2-2-2-2-2-5-5-5-0-5-5-5-5-5-5--|
-|-3-3-3-0-5-5-5-5-5-5---3-3-3---0-0-0-0-0-0-0-0-3-3-3-0-5-5-5-5-5-5--|
-|---------3-3-3-3-3-3-0-1-1-1-0-------------------------3-3-3-3-3-3--|
Guitar 1
-|--------------------------------|
-|--------------------------------|
-|--------------------------------|
-|-10-10-10-------5-5-2-2-2-2-----|
-|-8--8--8--0-0-0-3-3-0-0-0-0-----| x2
-|--------------------------------|


Guitar 2
-|-8-0-10--0-12-0-15/17--8-0-8-8-10-0-10-10-12-8-5--|
-|--------------------------------------------------|
-|--------------------------------------------------|
-|--------------------------------------------------|
-|--------------------------------------------------| x2
-|--------------------------------------------------|
Comments