Afi - Bleed Black Chords & Tabs

 

Bleed Black Chords & Tabs

Afi Chords & Tabs

Version: 1 Type: Tab 0 ratings
1 star 2 stars 3 stars 4 stars 5 stars
comments

Bleed Black Tab

AFI - Bleed Black
By:Andrew Mcshan (Guitarguyx182@aol.com)
[ Tab from: http://www.guitartabs.cc/tabs/a/afi/bleed_black_tab.html ]
Intro
e|---------------------------------------------------------------------------|
B|---------------------------------------------------------------------------|
G|-8---8---8-8---8--8---9---9--9-9---6--6--6----8---8--8-8--8--6--6--9---6--6|
D|---6---6-----6---6--6---7---7----7---4--4--4----6--6-----6-----4-4---7--4--|
A|---------------------------------------------------------------------------|
E|---------------------------------------------------------------------------|
Verse
e|---------------------------------------------------------------------------|
B|---------------------------------------------------------------------------|
G|---------------------------------------------------------------------------|
D|-6-6-4-4-6-6-2-2-6-6-4-4-9-9-9---------------------------------------------|
A|-6-6-4-4-6-6-2-2-6-6-4-4-9-9-9---------------------------------------------|
E|-4-4-2-2-4-4-0-0-4-4-2-2-7-7-7---------------------------------------------|
Pre Chorus
e|---------------------------------------------------------------------------|
B|---------------------------------------------------------------------------|
G|-9---6--------9------------------------------------------------------------|
D|-9-6-6-4--x3--9--9---------------------------------------------------------|
A|-7-6-4-4------7--9---------------------------------------------------------|
E|---4---2---------7---------------------------------------------------------|
Chorus
e|---------------------------------------------------------------------------|
B|---------------------------------------------------------------------------|
G|---------------------------------------------------------------------------|
D|-9-9-4-4-6-6---x4----------------------------------------------------------|
A|-9-9-4-4-6-6---------9---4-------------------------------------------------|
E|-7-7-2-2-4-4-----------4---2-----------------------------------------------|
Comments