Afi - Advances In Modern Technology Chords & Tabs

 

Advances In Modern Technology Chords & Tabs

Afi Chords & Tabs

Version: 3 Type: Tab 0 ratings
1 star 2 stars 3 stars 4 stars 5 stars
comments

Advances In Modern Technology Tab

   
AFI- Advances In Modern Technology

Intro:
e|----------------------------------------------------------------
B|----------------------------------------------------------------
G|-9-9-9-9-9-9-9-9-12-12-11-11-----------------7-7-7-7-7-7-7-7----
D|-9-9-9-9-9-9-9-9-12-12-11-11-10-10-10-10-10--7-7-7-7-7-7-7-7----
A|-7-7-7-7-7-7-7-7-10-10--9--9-10-10-10-10-10--5-5-5-5-5-5-5-5----
E|------------------------------8--8--8--8--8---------------------
[ Tab from: http://www.guitartabs.cc/tabs/a/afi/advances_in_modern_technology_tab_ver_3.html ]
    e|-------------------------------------------------------------|
    B|-----------------------------------------------------8-7-8-7-|
    G|-9-9-9-9-9-9-9-9-12-12-11-11-------------------------7-7-7-7-|
    D|-9-9-9-9-9-9-9-9-12-12-11-11-10-10-10-10-10-10-10-10-0-0-0-0-|
    A|-7-7-7-7-7-7-7-7-10-10--9--9-10-10-10-10-10-10-10-10---------|
    E|------------------------------8--8--8--8--8--8--8--8---------|

Verse:
e|----------------------------------------------------------------|
B|----------------------------------------------------------------|
G|-9-9-9-7-7-7-7-9-9-9-5-5-5--------------------------------------|
D|-9-9-9-7-7-7-7-9-9-9-5-5-5-9-9-9-9-7-7-7-7-9-9-9-9-10-10-10-10--|
A|-7-7-7-5-5-5-5-7-7-7-3-3-3-9-9-9-9-7-7-7-7-9-9-9-9-10-10-10-10--|
E|---------------------------7-7-7-7-5-5-5-5-7-7-7-7--8--8--8--8--|

Chorus:
e|--------------------------------------------------------------|
B|--------------------------------------------------------------|
G|--9-9-9-7-7-7-5-5-5-5-5-5-5-9-9-9-12-11-----------------------|
D|--9-9-9-7-7-7-5-5-5-5-5-5-5-9-9-9-12-11-10-10-10-10-12-12-12--|
A|--7-7-7-5-5-5-3-3-3-3-3-3-3-7-7-7-10--9-10-10-10-10-12-12-12--|
E|-----------------------------------------8--8--8--8-10-10-10--|
Comments