Afi - A Single Second Chords & Tabs

 

A Single Second Chords & Tabs

Afi Chords & Tabs

Version: 2 Type: Tab 0 ratings
1 star 2 stars 3 stars 4 stars 5 stars
comments

A Single Second Tab

   
this is my first tab. wow. its probably crap. o well try it

work out the strumming pattern for urself it aint hard

INTRO

e|--------------------------------------------------------------------------|
B|--------------------------------------------------------------------------|
G|-1212121212121212121212-12--------10-8888888888888-10---------------------|
D|-1212121212121212121212-12-(bass)-10-8888888888888-10---------------------|
A|-1010101010101010101010-10--------8--6666666666666-8----------------------|
E|--------------------------------------------------------------------------|

VERSE

e|--------------------------------------------------------------------------|
B|--------------------------------------------------------------------------|
G|---------5--5555-7-8-----------5--5555-8-10-------------------------------|
D|--5555-8-5--5555-7-8----5555-8-5--5555-8-10-------------------------------|
A|--5555-8-3--3333-5-6----5555-8-3--3333-6-8--------------------------------|
E|--3333-6----------------3333-6--------------------------------------------|
[ Tab from: http://www.guitartabs.cc/tabs/a/afi/a_single_second_tab_ver_2.html ]
e|--------------------------------------------------------------------------|
B|--------------------------------------------------------------------------|
G|---------5--5555-7-8--10101010101010-8-7777777-8--------------------------|
D|--5555-8-5--5555-7-8--10101010101010-8-7777777-8--(play whole verse twice)|
A|--5555-8-3--3333-5-6--8-8-8-8-8-8-8--6-5555555-6--------------------------|
E|--3333-6------------------------------------------------------------------|

CHORUS

e|-------------------------------------------------------|------------------|
B|-------------------------------------------------------|------------------|
G|-1212121212121212-88888888----------1010101010101010---|-12-12121212121212|
D|-1212121212121212-88888888-88888888-1010101010101010-x2|-12-12121212121212|
A|-1010101010101010-66666666-88888888-8-8-8-8-8-8-8-8----|-10-10101010101010|
E|---------------------------66666666--------------------|------------------|

then back to verse (whole verse played once)

then chorus again

then the "i feel so loooooooooost" bit...

e|----------------------------------------------------------------------|---|
B|----------------------------------------------------------------------|---|
G|-------------------55555555-7-8---------------------------------------|-12|
D|-55555555-88888888-55555555-7-8--5555555-88888888-33333333-222222-3---|-12|
A|-55555555-88888888-33333333-5-6--5555555-88888888-33333333-222222-3-x2|-10|
E|-33333333-66666666---------------3333333-66666666-11111111-000000-1---|---|

then chorus (just play the last chord for a bit longer)
Comments