Aeternus - Winter Tale Chords & Tabs

 

Winter Tale Chords & Tabs

Aeternus Chords & Tabs

Version: 1 Type: Tab 0 ratings
1 star 2 stars 3 stars 4 stars 5 stars
comments

Winter Tale Tab

Song: Winter Tale
>From album: Beyond The Wandering Moon
Group: Aeternus

I did not tab the intro, which is quite boring.
-sounds like he's trying to tune an acustic guitar-hahaha


Vers riff:
----------------------------------------------------------------------------
----------------------------------------------------------------------------
----------------------------------------------------------------------------
--4--4-4-4-4---4--4-4-4-4------5--5-5-5-5---5--5-5-5-5----------------------
--2--2-2-2-2---2--2-2-2-2------3--3-3-3-3---3--3-3-3-3----------------------
----------------------------------------------------------------------------
Play the part above two times, then the part below two times.


-------------------------------------------------------------------------
-------------------------------------------------------------------------
-------------------------------------------------------------------------
--5--5-5-5-5---5--5-5-5-5---4--4-4-4-4---4--4-4-4-4----------------------
--3--3-3-3-3---3--3-3-3-3---2--2-2-2-2---2--2-2-2-2----------------------
-------------------------------------------------------------------------



Riff 2:
----------------------------------------------------------------------------
--
----------------------------------------------------------------------------
--
----------------------------------------------------------------------------
--
-4--4-4-4-/-7----4--4-4-4-/-7-/-6--2----------------------------------------
--
-2--2-2-2-/-5----2--2-2-2-/-5-/-4--0----------------------------------------
--
----------------------------------------------------------------------------
--


Riff 3:
----------------------------------------------------------------------------
-
----------------------------------------------------------------------------
-
----------------------------------------------------------------------------
-
--7--7-7-7-7----6--6-6-6-6---4--4-4-4-4--4--4-4-4-4-------------------------
-
--5--5-5-5-5----4--4-4-4-4---2--2-2-2-2--2--2-2-2-2-------------------------
-
----------------------------------------------------------------------------
-


[ Tab from: http://www.guitartabs.cc/tabs/a/aeternus/winter_tale_tab.html ]
----------------------------------------------------------------------------
-
----------------------------------------------------------------------------
-
----------------------------------------------------------------------------
-
--7--7-7-7-7----6--6-6-6-6---10--10-10-10-10---10--10-10-10-10--------------
-
--5--5-5-5-5----4--4-4-4-4----8---8--8--8--8----8---8--8--8--8--------------
-
----------------------------------------------------------------------------
-


Riff 4:
----------------------------------------------------------------------------
----------------------------------------------------------------------------
----------------------------------------------------------------------------
--7--7-7-7-7---4--4-4-4-4---9--9-9-9-9---2--2-2-2-2-------------------------
--5--5-5-5-5---2--2-2-2-2---7--7-7-7-7---0--0-0-0-0-------------------------
----------------------------------------------------------------------------

----------------------------------------------------------------------------
----------------------------------------------------------------------------
----------------------------------------------------------------------------
--5--5-5-5-5----4--4-4-4-4--------------------------------------------------
--7--7-7-7-7----2--2-2-2-2--2-h-4--2-0--------------------------------------
----------------------------------------3-2---------------------------------


Riff 5:
---------------------------------------------------------------------------
---------------------------------------------------------------------------
---------------------------------------------------------------------------
-4--4-4-4-4---7--7-7-7-7---9--9-9-9-9---2--2-2-2-2---2--2-2-2-2------------
-2--2-2-2-2---5--5-5-5-5---7--7-7-7-7---0--0-0-0-0---0--0-0-0-0------------
---------------------------------------------------------------------------


--------------------------------------------------------------------------
--------------------------------------------------------------------------
--------------------------------------------------------------------------
-2--2-2-2-------4--4-4-4-4--4--4-4-4-4------------------------------------
-0--0-0-0--h-4--2--2-2-2-2--2--2-2-2-2------------------------------------
--------------------------------------------------------------------------
Comments