Aerosmith - Young Lust Chords & Tabs

 

Young Lust Chords & Tabs

Aerosmith Chords & Tabs

Version: 3 Type: Tab 0 ratings
1 star 2 stars 3 stars 4 stars 5 stars
comments

Young Lust Tab

Young Lust 
From "Pump"

Intro                x3  The second time you play the intro you here this
|-------3-------------|----------------------------------------------|
|-3-3---3-------------|----------------------------------------------|
|-2-2---0--------2-2--|----------------------------------------------|
|-0-0-------5----2-2--|----------------------------------------------|
|-----------3----0-0--|-------3-0------------------------------------|
|---------------------|-0-3-0----------------------------------------|

|-------3------------------------------------------------------------|
|-3-3---3------------------------------------------------------------|
|-2-2---0--5/-9-9----9-9----9-9----9-9-------------------------------|
|-0-0------5/-9-9----9-9----9-9----9-9-------------------------------|
|----------3/-7-7----7-7----7-7----7-7-------------------------------|
|--------------------------------------------------------------------|
[ Tab from: http://www.guitartabs.cc/tabs/a/aerosmith/young_lust_tab_ver_3.html ]
Main Riffs                      Use this one for the singing parts
|----0-------------------------|----0--------------------------------|
|------------------------------|-------------------------------------|
|0-2--0---2------------2--2--2-|0-2--------2----------2--2--2--------|
|----------------------2--2--2-|----------------------2--2--2--------|
|-------------3-0--0-----------|--------------3-0--0-----------------|
|------------------------------|-------------------------------------|

And there is the ocacional fill in the verse:
|----------3-3---------------------------------------------------------|
|--3-3-----3-3---------------------------------------------------------|
|--2-2-----0-0------------------------------9-9--9-9-------------------|
|--0-0-----0-0--------some times add this:--9-9--9-9-------------------|
|--0-0--------------------------------------7-7--7-7-------------------|
|----------3-3---------------------------------------------------------|


For the "Do it in th Sunshine part" play the FIRST main riff at the top

and the ending is:

|----0-----------------3-3-5555|
|----------------------3-3-5555|
|0-2--0---2--------------------|
|------------------------------|
|-------------3-0--0-----------|
|------------------------------|
Comments