Aerosmith - Walk This Way Chords & Tabs

 

Walk This Way Chords & Tabs

Aerosmith Chords & Tabs

Version: 6 Type: Tab 0 ratings
1 star 2 stars 3 stars 4 stars 5 stars
comments

Walk This Way Tab

1-----------------------------------------------------------
2-----------------------------------------------------------
3-----------------------------------------------------------
4------2---------2--------------2----------------2----------
5-0-1-2----0-1-2----------0-1-2------0-1-2------------------
6-------------------0----------------------3/0--------------

1-----------------------------------------------------------
2-----------------------------------------------------------
3----------------------------------------2------------------
4-------2---------2-----------2----------2------------------
5-0-1-2-----0-1-2-------0-1-2----0-1-2---0------------------
6--------------------0--------------------------------------
[ Tab from: http://www.guitartabs.cc/tabs/a/aerosmith/walk_this_way_tab_ver_6.html ]
Comments