Aerosmith - Walk This Way Chords & Tabs

 

Walk This Way Chords & Tabs

Aerosmith Chords & Tabs

Version: 4 Type: Tab 4 ratings
1 star 2 stars 3 stars 4 stars 5 stars
comments

Walk This Way Tab

I ASSURE YOU THIS IS CORRECT AS I HAVE THE BOOK

E----------------------------------------------------------
B----------------------------------------------------------
G----------------------------------------------------------
D----------2----------2----------------2-----------2-----2-
A-0--1--2----0--1--2-----------0--1--2-----0--1--2---------
E-----------------------0--xxx--------------------------3--
[ Tab from: http://www.guitartabs.cc/tabs/a/aerosmith/walk_this_way_tab_ver_4.html ]
E----------------------------------------------------------
B----------------------------------------------------------
G-------------------------------------------------------2--
D----------2----------2----------------2-----------2----2--
A-0--1--2----0--1--2----------0--1--2-----0--1--2-------0--
E-----------------------0----------------------------------

Main part during "Backstroke lover always hiding 'neath the covers" etc.
Play very fast
E-----------------------------------------------------------
B-----------------------------------------------------------
G-----------------------------------------------------------
D---------------------10------------------------------------
A-------10-10-12-10------10-10-13-10-12-10------------------
E-8-8-8-------------8---------------------------------------
Repeat...

Part during "Walk this way"
---------------------
---10--10--10--------
---8---8---8---------
---------------------
---------------------
---------------------
Repeat as needed...
Comments