Aerosmith - Walk This Way Chords & Tabs

 

Walk This Way Chords & Tabs

Aerosmith Chords & Tabs

Version: 2 Type: Tab 4 ratings
1 star 2 stars 3 stars 4 stars 5 stars
comments

Walk This Way Tab

Title: Walk this way
Artist: Aerosmith

Tabbed: Jon Zegar (email: wkgnpimp15@hotmail.com


Riff 1

|---------------------|------------------------|----------------------|---------------------|
|---------------------|------------------------|----------------------|---------------------|
|---------------------|------------------------|----------------------|---------------------|
|--------2--------2---|-------2--------2-----2-|-------2--------2-----|-------2--------2-2--|
|--0-1-2----0-1-2-----|-0-1-2----0-1-2---------|-0-1-2----0-1-2-------|-0-1-2----0-1-2------|
|-------------------0-|------------------3-0-1-|------------------0-1-|------------------0--|

Riff 2
[ Tab from: http://www.guitartabs.cc/tabs/a/aerosmith/walk_this_way_tab_ver_2.html ]
|----------------------------|---------------------------|                                         
|----------------------------|---------------------------|
|--5----------5--------------|------------5--------------|
|--5-5--5-7-5---5-5-6-5-7-5--|-----5-7--5---5-5-6-5-7-5--|
|--3-------------------------|---------------------------|
|----------------------------|--6------------------------|

Riff 3

|------------------------------|------------------------------|
|------------------------------|--------------10--10--10------|
|--------------5---------------|---------------0---0---0------|
|-----5--5-7-5---5-5-6-5-7-5---|-----5--5-7-------------------|
|------------------------------|------------------------------|
|--6---------------------------|--6---------------------------|


well there you go.. im almost positive its all correct just not to sure about
a few of the notes. other then that there u go..have fun with it!
Comments