Aerosmith - Toys In The Attic Chords & Tabs

 

Toys In The Attic Chords & Tabs

Aerosmith Chords & Tabs

Version: 3 Type: Bass Tab 0 ratings
1 star 2 stars 3 stars 4 stars 5 stars
comments

Toys In The Attic Bass Tab

Toys in the Attic by Aerosmith
Standard Tuning

(Intro)
G:-------------|-------------|-------------|-------------|
D:-------------|-------------|-------------|-------------|  x4
A:--7-5-5------|--7-5-5------|--7-5-5------|----5-------5|
E:0----7--7-3-0|-----7--7-3-0|-----7--7-3-0|5-------0----|

G:-------------|-------------|-------------|-------------|
D:-------------|-------------|7-5---5---5-7|-------------|
A:------------5|----5--------|----7---7----|----5---0----|
E:5-----0------|--------5----|-------------|-------------|

G:-------------|-------------|-------------|-------------|
D:----------9-7|-------------|----------9-7|-------------|
A:--6-7 /9-----|7------------|--6-7 /9-----|7------------|
E:7------------|----5-5-5---7|7------------|----5-5-5---7|

G:-------------|-------------|-------------|-------------|
D:-------------|-------------|-------------|-------------|
A:5-6-7-7-7-7-7|7-7-7-7-7-7-7|7-7-7-7-7-7-7|7-7-7-7-7-7-7|
E:-------------|-------------|-------------|-------------|

G:-------------|-------------|-------------|-------------|
D:-------------|-------------|-------------|-------------|  x3
A:7-7-7-7-7-7-7|7-7-7-7-7-7-7|7-7-7-7-7-7-7|7-7-7-7-7-7-7|
E:-------------|-------------|-------------|-------------|

G:-------------|-------------|-------------|-------------|
D:-------------|-------------|7-5---5---5-7|-------------|
A:------------5|----5--------|----7---7----|----5---0----|
E:5-----0------|--------5----|-------------|-------------|

G:-------------|-------------|-------------|-------------|
D:----------9-7|-------------|----------9-7|-------------|
A:--6-7 /9-----|7------------|--6-7 /9-----|7------------|
E:7------------|----5-5-5---7|7------------|----5-5-5---7|

G:-------------|-------------|-------------|-------------|
D:-------------|-------------|-------------|-------------|  x4
A:--7-5-5------|--7-5-5------|--7-5-5------|----5-------5|
E:0----7--7-3-0|-----7--7-3-0|-----7--7-3-0|5-------0----|
[ Tab from: http://www.guitartabs.cc/tabs/a/aerosmith/toys_in_the_attic_btab_ver_3.html ]
G:-------------|-------------|-------------|-------------|
D:----------9-7|-------------|----------9-7|-------------|
A:--6-7 /9-----|7------------|--6-7 /9-----|7------------|
E:7------------|----5-5-5---7|7------------|----5-5-5---7|

G:-------------|-------------|-------------|-------------|
D:-------------|-------------|-------------|-------------|
A:2-2-2-2-2-2-2|2-2-2-2-2-2-2|2-2-2-2-2-2-2|2-2-2-2-2-2-2|
E:-------------|-------------|-------------|-------------|

G:-------------|-------------|-------------|-------------|
D:-------------|-------------|-------------|-------------|  x2
A:3-3-3-3-3-3-3|3-3-3-3-3-3-3|3-3-3-3-3-3-3|3-3-3-3-3-3-3|
E:-------------|-------------|-------------|-------------|

G:----------5-3|-------------|----------5-3|-------------|
D:----2-3/5----|5-3-1--------|----2-3/5----|5-3-1--------|  x2
A:3-3----------|------3-0-123|3-3----------|------3-0-123|
E:-------------|-------------|-------------|-------------|

G:-------------|-------------|-------------|-------------|
D:1-2-2-2-2-2-2|2-2-2-2-2-2-2|2-2-2-2-2-2-2|2-2-2-2-2-2-2|
A:-------------|-------------|-------------|-------------|
E:-------------|-------------|-------------|-------------|

G:-------------|-------------|-------------|-------------|
D:2-2-2-2-2-2-2|2-2-2-2-2-2-2|2-2-2-2-2-2-2|2-2-2-2-2-2-2|
A:-------------|-------------|-------------|-------------|
E:-------------|-------------|-------------|-------------|

G:-------------|-------------|-------------|-------------|
D:-------------|-------------|7-5---5---5-7|-------------|
A:------------5|----5--------|----7---7----|----5---0----|
E:5-----0------|--------5----|-------------|-------------|

G:-------------|-------------|-------------|-------------|
D:----------9-7|-------------|----------9-7|-------------|
A:--6-7 /9-----|7------------|--6-7 /9-----|7------------|
E:7------------|----5-5-5---7|7------------|----5-5-5---7|

G:-------------|-------------|-------------|-------------|
D:-------------|-------------|-------------|-------------|  x6 (The song
A:--7-5-5------|--7-5-5------|--7-5-5------|----5-------5|     then fades
E:0----7--7-3-0|-----7--7-3-0|-----7--7-3-0|5-------0----|         out)

Thanks, please rate it after you learn it. 
Tabbed by:
_TheBassist01_
Comments