Aerosmith - Simoriah Chords & Tabs

 

Simoriah Chords & Tabs

Aerosmith Chords & Tabs

Version: 1 Type: Tab 0 ratings
1 star 2 stars 3 stars 4 stars 5 stars
comments

Simoriah Tab

   
Artist-Aerosmith
Song-Simoriah
Album-Permanent Vacation 1987
Guitarists-Brad Whitford, Joe Perry
Words and Score By-Steven Tyler, Joe Perry, Tom Hamilton And BRad Whitford
tabbed by-Smellslikefeet1

this is one of the less popular aerosmith songs but i think its one of their best.
i dont have the solo on this song unfortunatly but ill work on it and maybe post it up.

x-mute
b-bend
/-slide
h-hammeron
p-pulloff

Intro (Whitford)
|----------------------|---------------------|
|----------------------|---------------------|
|---1------------------|---1-----------------|
|---2------------------|---2-----------------|x2
|-2-2------------------|-2-2-----------------|
|-0-0------------------|-0-0-----------------|
Perry
|-0----2-4-2-----5-4---|-0----2-4-2-----0---0---0-|
|---0-3-----3-0--5-5---|---0-3------3-0-3-0-3-0-3-|
|----------------4-4---|--------------------------|
|----------------------|--------------------------|x2
|----------------------|--------------------------|
|----------------------|--------------------------|

(Whitford)

|-2------|-3------|-2------|-3-----|
|-3------|-3------|-3------|-3-----|
|-2------|-2------|-2------|-2-----|
|--------|--------|--------|-------|x2
|--------|--------|--------|-------|
|--------|--------|--------|-------|
(Perry)
|-2------|-3---3--|-2------|-2---3--|
|-3------|-3-3-3-3|-3------|-3-3-3-3|
|-2------|-2---2--|-2------|-2---2--|
|--h4p0-0|0-------|--h4p0-0|0-------|x2
|--------|--------|--------|--------|
|--------|--------|--------|--------|


Perry and Whitford
  Walkin The line of the razors edge
|------------2-2-2-2----3-3-3-3-2-2-2-2---------|
|-2-2-2-2----3-3-3-3----3-3-3-3-3-3-3-3---------|
|-2-2-2-2----2-2-2-2----2-2-2-2-2-2-2-2---------|
|-2-2-2-2----0-0-0-0----0-0-0-0-0-0-0-0---------|
|-0-0-0-0---------------------------------------|
|-----------------------------------------------|
Take it as Far As She Goooes
|----------2-2-2-2-------------------|
|-2-2-2-2--3-3-3-3---2-2-2-2---------|
|-2-2-2-2--2-2-2-2---2-2-2-2---------|
|-2-2-2-2--0-0-0-0---2-2-2-2---------|
|-0-0-0-0------------0-0-0-0--5-4----|
|-----------------------------3-2----|

Slice of The sky On a Silver Wedge
|----------4-4-4-4--5-5-5-5-4-4-4-4--|
|----------5-5-5-5--5-5-5-5-5-5-5-5--|
|-4-4-4-4--4-4-4-4--4-4-4-4-4-4-4-4--|
|-4-4-4-4----------------------------|
|-2-2-2-2----------------------------|
|------------------------------------|

Higher And Higher We GOo    lets go
|---------4-4-4-4------------------|
|---------5-5-5-5------------------|
|-4-4-4-4-4-4-4-4-4-4-4-4----------|
|-4-4-4-4---------4-4-4-4----------|
|-2-2-2-2---------2-2-2-2----------|
|----------------------------------|

[ Tab from: http://www.guitartabs.cc/tabs/a/aerosmith/simoriah_tab.html ]
|-2------|-3------|-2------|-3-----|
|-3------|-3------|-3------|-3-----|
|-2------|-2------|-2------|-2-----|
|--------|--------|--------|-------|x2
|--------|--------|--------|-------|
|--------|--------|--------|-------|
(Perry)
|-2------|-3---3--|-2------|-2---3--|
|-3------|-3-3-3-3|-3------|-3-3-3-3|
|-2------|-2---2--|-2------|-2---2--|
|--h4p0-0|0-------|--h4p0-0|0-------|x2
|--------|--------|--------|--------|
|--------|--------|--------|--------|


Perry and Whitford
  Ladies In black Put A Spell On me
|------------2-2-2-2----3-3-3-3-2-2-2-2---------|
|-2-2-2-2----3-3-3-3----3-3-3-3-3-3-3-3---------|
|-2-2-2-2----2-2-2-2----2-2-2-2-2-2-2-2---------|
|-2-2-2-2----0-0-0-0----0-0-0-0-0-0-0-0---------|
|-0-0-0-0---------------------------------------|
|-----------------------------------------------|
Feels like my heads gfoing round and round and round and upside down
|----------2-2-2-2-------------------|
|-2-2-2-2--3-3-3-3---2-2-2-2---------|
|-2-2-2-2--2-2-2-2---2-2-2-2---------|
|-2-2-2-2--0-0-0-0---2-2-2-2---------|
|-0-0-0-0------------0-0-0-0--5-4----|
|-----------------------------3-2----|

ladies In White Aint My Cup of tea
|----------4-4-4-4--5-5-5-5-4-4-4-4--|
|----------5-5-5-5--5-5-5-5-5-5-5-5--|
|-4-4-4-4--4-4-4-4--4-4-4-4-4-4-4-4--|
|-4-4-4-4----------------------------|
|-2-2-2-2----------------------------|
|------------------------------------|

So be it, I need it Long Legs Big Eyes She Drives me Crazy
|---------4-4-4-4------------------|
|---------5-5-5-5------------------|
|-4-4-4-4-4-4-4-4-4-4-4-4----------|
|-4-4-4-4---------4-4-4-4----------|
|-2-2-2-2---------2-2-2-2----------|
|----------------------------------|

OhhhhhhhhhhhhHH  Ohhhhhhhhhhhhhhh   Simoriiiiaaaah
|-2------|-3------|-2------|-3-----|-2-------|-3------|-2------|-3------|
|-3------|-3------|-3------|-3-----|-3-------|-3------|-3------|-3------|
|-2------|-2------|-2------|-2-----|-2-------|-2------|-2------|-2------|
|-0------|-0------|-0------|-0-----|-0-------|-0------|-0------|-0------|x2
|--------|--------|--------|-------|---------|--------|--------|--------|
|--------|--------|--------|-------|---------|--------|--------|--------|

|-2------|-3---3--|-2------|-2---3--|
|-3------|-3-3-3-3|-3------|-3-3-3-3| play this along with the rythem riff
|-2------|-2---2--|-2------|-2---2--|
|--h4p0-0|0-------|--h4p0-0|0-------|x4
|--------|--------|--------|--------|
|--------|--------|--------|--------|

solo?

the next verse and stuff  is all just repeating


so yeah thats pretty much it other then the solo which im working on right now
and it shoudl show up ina  while if ur lookin for it. thnx for chekcing out my
tabs please check out my other ones too
Comments