Aerosmith - Same Old Song And Dance Chords & Tabs

 

Same Old Song And Dance Chords & Tabs

Aerosmith Chords & Tabs

Version: 3 Type: Bass Tab 0 ratings
1 star 2 stars 3 stars 4 stars 5 stars
comments

Same Old Song And Dance Bass Tab

Artist:Aerosmith
Song:Same Old Song And Dance
Album:Get Your Wings
Tabbed By:Gary Hricewich
E-mail:snapper2001@msn.com
[ Tab from: http://www.guitartabs.cc/tabs/a/aerosmith/same_old_song_and_dance_btab_ver_3.html ]
                                 
                                            
 Guitar Intro                  Bass Intro
G---------------|-------------|------------|
D---------------|-------------|----0-------|
A---------------|-------------|--2---2-----|
E---------------|---0-0-------|--------3-0-|
                                            
                             
Main Verse 
G---------------------------|
D-----------0-0-----0-------|
A---------2-------2---2-----|
E---0-2-4---------------3-0-|
                             
                                                  
 Its The Same Old Story 
G------------|----------|------------------------|
D------------|----------|---------0-0----0-------|
A----------3-|-3-3--5-5-|-------2------2---2-----|
E---3-3--5---|----------|-0-2-4--------------3-0-|
                                                  
                                                 
 Same Old Song And Dance  
G------------|----------|-----------------------|
D------------|----------|-3-3--5-5---7----------|
A----------3-|-3-3--5-5-|-------------------3-3-|
E---3-3--5---|----------|-----------------------|
                                                 
                                            
 Fate Comes A Knockin
G------------------------------------------|
D------------------------------------------|
A---2-2-2-2-2-2-2-2-2-2-------------3----5-|
E------------------------------------------|
Comments