Aerosmith - Remember Chords & Tabs

 

Remember Chords & Tabs

Aerosmith Chords & Tabs

Version: 1 Type: Tab 0 ratings
1 star 2 stars 3 stars 4 stars 5 stars
comments

Remember Tab

   
Band : Aerosmith
Song : Remember (Walking in the Sand)

Standard Tuning
(E A D G B E)

|---------------------------------------------------------------------|
|-------------------4-----------------------4-------------------------|
|-----------------5---5---------3---------5---5-----------------------|
|---------------5-------5-------3-------6-------6-------5-------------|
|-6-----5-----3-----------3-----1-----------------------5-------------|
|-------------------------------------4-----------4-----3-------------|
                 Seems like the other day, my baby went away
                 It's been two years or so, since I saw my baby go
                 It said that we was through, she found somebody new

|-------------------------------------|
|-------------------------------------|
|-------1-----------1-----------4-----|
|-----3---3-------3---3-------5---5---|
|---3-------3---3-------3---5-------5-|
|-1-----------1-----------3-----------|
She went away 'cross the sea
And then this letter came for me
Oh lemme think, lemme think, what shall I do
[ Tab from: http://www.guitartabs.cc/tabs/a/aerosmith/remember_tab.html ]
|---------------------------------------------------------------------|
|---------------------------------------------------------------------|
|-------5---------5---------------------------------------------------|
|-------5---------5---------6-----------------------------------------|
|-6--5--3---------3---------6-----------------------------------------|
|--------------------------4------------------------------------------|
        Oh no     Oh no     Oh no no no no no

|---------------------------------------------------------------------|
|---------------------------------------------------------------------|
|---5--------------------3----5---------------------------------------|
|-5-5--------------------3----5---------------------------------------|
|-5-3--------------------1----3---------------------------------------|
|-3-------------------------------------------------------------------|
  Remember      Walking in the sand
  Remember      Walking hand in hand
  Remember      The night was so exciting
  Remember      Her smile was so inviting
  Remember      Then she touched my cheek
  Remember      With her fingertips
  Remember      Softly, softly

|---------------------------------------------------------------------|
|---------------------------------------------------------------------|
|--5-5-5-5-5-5-5-5-5-5-5-5--------------------------------------------|
|--5-5-5-5-5-5-5-5-5-5-5-5--------------------------------------------|
|--3-3-3-3-3-3-3-3-3-3-3-3--------------------------------------------|
|---------------------------------------------------------------------|
 We met with a kiss

If you have any questions, please email me at Marshall_5150@hotmail.com
Comments