Aerosmith - One Way Street Live Chords & Tabs

 

One Way Street Live Chords & Tabs

Aerosmith Chords & Tabs

Version: 1 Type: Tab 0 ratings
1 star 2 stars 3 stars 4 stars 5 stars
comments

One Way Street Live Tab

   
tuning:standard
tabbed by:a crazy teenage rock and roll fan
artist:aerosmith
song:one way street
album:aerosmith*
year:1973*

*this song is the live version that is previously unreleased.
it was recorded at a club gig in Boston, Massechussetts in 1994.
it is an Aerosmith rarity. 
So please note that the tuning and the solo notes may be different 
than the actuall studio recording.

key to tab:
h=hammer on
p=pull off
/=slide up
\=slide down
==let ring
~=vibrato
b=bend string (release just before next note is played)

intro.
E|-------------------|
B|-9---9-9---8-8---8-|
G|-8---8-8---7-7---7-|
D|-6---6-6---5-5---5-|
A|-------------------|
E|-------------------|
play this four times

then play this
E|-----------------------------------------------|
B|-----------------------------------------------|
G|-----------------------------------------------|
D|-----------------------------------------------|
A|-3-3-3-3-3-3-3-3-3-3-3-3-3-3-3-3-3-3-3-3-3-3-3-|
E|-----------------------------------------------|

E|------------------|
B|------------------|
G|-----3===---------|
D|-5-5-1===5-5-3====|
A|-3-3-----3-3-1====|
E|------------------|
play this four times

verse

guitar one
E|-----------------------|
B|-----------------------|
G|-----------------------|
D|-5-5---5-5---5-5---5-5-|
A|-3-3---3-3---3-3---3-3-|
E|-----------------------|
play this four times

guitar two
E|-----------------------------|
B|-13-13===11-11===9-9===8-8===|
G|-----------------------------|
D|-----------------------------|
A|-----------------------------|
E|-----------------------------|

chorus (played by both guitars)
E|---------------------------------------------|
B|---------------------------------------------|
G|-5---1---2-----------------------------------|
D|-3---3---0---5-5-5-5-5-5-5-5-5-5-5-5-5-5-5-5-|
A|-------------3-3-0-0-3-3-6-6-3-3-6-6-3-3-6-6-|
E|---------------------------------------------|
[ Tab from: http://www.guitartabs.cc/tabs/a/aerosmith/one_way_street_live_tab.html ]
E|---------------------------------------------|
B|---------------------------------------------|
G|-5---1---2-----------------------------------|
D|-3---3---0---5-5-5-5-5-5-5-5-5-5-5-5-5-5-5-5-|
A|-------------3-3-0-0-3-3-6-6-3-3-6-6-3-3-6-6-|
E|---------------------------------------------|

E|------------------|
B|------------------|
G|-5---3---3========|
D|-3---1---5========|
A|------------------|
E|------------------|

then play this order:
verse
chorus
intro
verse
chorus

bridge
E|-------------------------|
B|-------------------------|
G|-------------------------|
D|---------------------1-1-|
A|-3-3-1-3-3-1-3-3-1-3-----|
E|-------------------------|
repeat this four times.

guitar solo.
(guitar two will play the bridge riff over the solo)
solo.
E|------------------------------------|
B|-12b13-12b13-13-13-13-11-8-8~~~~~~~~|
G|------------------------------------|
D|------------------------------------|
A|------------------------------------|
E|------------------------------------|

E|-----------------------------------|
B|-13p109p8---------12b13p12--10p9p8-|
G|----------11-10-8------------------|
D|-----------------------------------|
A|-----------------------------------|
E|-----------------------------------|

E|-------------------------|
B|-------------------------|
G|-11-10-8-----------------|
D|-------------------------|
A|-----------------6-8-6---|
E|---------6-8-6-8-------8-|

E|---------------------------------------------------------|
B|-11-8-8-11-8-8-11-8-8-11-8-8-11-8-8-11-8-8-11-8-8-11-8-8-|
G|---------------------------------------------------------|
D|---------------------------------------------------------|
A|---------------------------------------------------------|
E|---------------------------------------------------------|

E|----------------------------------|
B|-12b13-12b13-13-13-13-11-8~~~~~~~~|
G|----------------------------------|
D|----------------------------------|
A|----------------------------------|
E|----------------------------------|

then you play:
verse 
chorus
intro
chorus
intro

and that should take care of it.

BE SURE TO NOTE THAT this is the live version and it is done 
rather differently than the original recording. it relates to the 
originall recording. so if you want you can use this to try and 
figure out the originall recording of it. i will try to tab it
too.
Comments