Aerosmith - Mama Kin Chords & Tabs

 

Mama Kin Chords & Tabs

Aerosmith Chords & Tabs

Version: 2 Type: Tab 0 ratings
1 star 2 stars 3 stars 4 stars 5 stars
comments

Mama Kin Tab

   
Song: Mama Kin
Artist: Aerosmith
Record: Aerosmith


Intro/first part of verse:
Chords used: E5(7th fret) D5 B5(7th fret) A5 E5(2nd fret)
This is played a couple times and then there's a lot of leads

e|--------------------------------------------------------------|
B|--------------------------------------------------------------|
G|----9-9-7-9-9-------------------------------------------------|
D|----9-9-7-9-9--9-9-7-9-9--7-7-7-7-7-7-2-2-2-2-2-2-2-2---------|
A|----7-7-5-7-0--9-9-7-9-9--7-7-7-7-7-7-2-2-2-2-2-2-2-2---------|
E|---------------7-7-5-7-0--5-5-5-5-5-0-0-0-0-0-0-0-0-0---------|
                                        D D U D U D U D
[ Tab from: http://www.guitartabs.cc/tabs/a/aerosmith/mama_kin_tab_ver_2.html ]
Chorus:
Chords used: B5(7th fret) E5(7th fret)
This is played and then the words are sung
e|--------------------------------------------------------------|
B|--------------------------------------------------------------|
G|--------9--------------------------------------9--------------|
D|----9-9-9----------------------------------9-9-9--------------|
A|----9-9-7----------------------------------9-9-7--------------|
E|----7-7------------------------------------7-7----------------|
            "Keep in touch with Mama Kin..."
D= strum down
U= strum up

Lyrics:
verse 1

It ain't easy livin like a gypsy
Tell ya honey how i feel
I've been dreamin', floating down the stream an'
Losin' touch with all that's real

Chorus:

Well, you've always got you tail in a wag (?)
Shooting fire from yo mouth just like a Draaaagon
You act like a perpetual day
You better knock it off or someday soon you'll have to climb back on the Waaagon

verse 2

It ain't easy livin like you wanna
It's so hard to find piece of mind (yes it is)
The way i see it you got to say shit
but don't forget to drop me a line

(chorus) + |Keepin' touch with Mama Kin|
|Tell em where you gone and been| 
|Livin out your fantasy| 
|Sleepin late and smokin tea|

verse 2

(chorus) + |Keepin' touch with Mama Kin|
|Tell em where you gone and been| 
|Livin out your fantasy| 
|Sleepin late and smokin tea|

(repeat till end)
Comments