Aerosmith - Mama Kin Chords & Tabs

 

Mama Kin Chords & Tabs

Aerosmith Chords & Tabs

Version: 1 Type: Tab 4 ratings
1 star 2 stars 3 stars 4 stars 5 stars
comments

Mama Kin Tab

   
Aerosmith
Mama Kin
Tabbed By: Clay Asher
 I couldnt find a good tab for this song so I did it by ear..
 No this is not my first tab so if there is a mistakes im not going
 to cover it up by saying that. Im a 15 year old guitarist, started at
 age 5, so dont be thinkin (oh hes 15 he sucks) well here it is:
 

E----------------------------------------------
B-----------------------------2-2---2p0--------
G-9-9------9---4-4-----4------2-2-x-x----------
D-9-9---7--9---4-4---2-4---0--2-2-2-x---2-2----
A-7-7---7--7---2-2---2-2---0------0-----2-2----
E---------------------------------------0-0----

E----------------------- this is the main riff which
B----------------------- you repeat many times
G-----------------------
D-----------------------
A-2-2-4-2-5-2-4-2/-\\---
E-0-0-0-0-0-0-0-0/-\\--- 
                         
      
E------------------------------------
B------------------------------------
G------------------------------------
D------------------------------------
A-2-2-4-2-5-2-5-2--------------------
E-0-0-0-0-0-0-0-0--2-2-3-3-4-4-5-5---

E------------------------------------
B------------------------------------
G------------------------------------
D------------------------------------
A--7-7-9-7-10-7-9--7-7-9-7-10-7-9-7--
E--5-5-5-5-5--5-5--5-5-5-5-5--5-5-5--

E----------------------------------------------------
B----------------------------------------------------
G----------------------------------------------------
D----------------------------------------------------
A--------2-2-4-2-5-2-4-2---2-2-4-2-5-2-4-2-----------
E-//-\\--0-0-0-0-0-0-0-0---0-0-0-0-0-0-0-0-----------

E-----------------------------
B-----------------------------
G-----------------------------
D-----------------------------
A-----------------------------
E-2-2-3-3-4-4-5-5-6-6-7-7-8-8-

E-------------------------------------------
B-------------------------------------------
G-------------------------------------------
D-------------------------------------------
A-9-9-11-9-12-9-11-9--7-7-9-7-11-7-9-7------
E-7-7-7--7-7--7-7--7--5-5-5-5-5--5-5-5---/\-

E-----------------------------------------
B-----------------------------------------
G-----------------------------------------
D---------------------------------------2-
A--2-2-4-2-5-2-4-2---2-2-4-2-5-2-4-2----2-
E--0-0-0-0-0-0-0-0---0-0-0-0-0-0-0-0----0-


E----------------------------------------------
B-----------------------------2-2---2p0--------
G-9-9------9---4-4-----4------2-2-x-x----------
D-9-9---7--9---4-4---2-4---0--2-2-2-x---2-2----
A-7-7---7--7---2-2---2-2---0------0-----2-2----
E---------------------------------------0-0----

E----------------------- Play this a few times.
B----------------------- 
G-----------------------
D-----------------------
A-2-2-4-2-5-2-4-2/-\\---
E-0-0-0-0-0-0-0-0/-\\---
[ Tab from: http://www.guitartabs.cc/tabs/a/aerosmith/mama_kin_tab.html ]
                    SOLO!!!!!!!
E---------------------------------------------
B---------------------------------------------
G---------------------------------------------
D---------------------------------------------
A---------------------------------------------
E-2-2-3-3-4-4-5-5-6-6-7-7-8-8-9-9-10-10-11-12-

E--14b15r14------------------------------------------
B-----------------12p11------------------------------
G-----------12p11-------14p12-12b--------12-----14---
D---------------------------------14--14----14-----14
A----------------------------------------------------
E----------------------------------------------------

E---------------------------------------------------
B-12-------14b15---14b15r14-----14-------14---------
G----x-----------------------------12-------12------
D------\-0-------------------14-------14-------14---
A---------------------------------------------------
E---------------------------------------------------

E-----------------------------------------------------
B-14-------14-------14-------14-------14--------12^^12
G----12-------12-------12-------12-------12-----------
D-------14-------14-------14-------14-------14--------
A-----------------------------------------------------
E-----------------------------------------------------

E--14b15r14-------------------------------------------
B------------15p14p12-------------12--12--12p\2-------
G---------------------12p11---------------------------
D---------------------------14p12---------------------
A-----------------------------------------------------
E-----------------------------------------------------

E--4b5r4-----------------------------7-9b10---
B---------4p2---------------------------------
G-------------2p1--1h2p1h2p1h2p1p1/-----------
D---------------------------------------------
A---------------------------------------------
E---------------------------------------------

E-----------------------------------------------
B--7------------------------7h10p7----7---------
G-----7----9b--9b10-9b10r9----------9---7-9b10--
D-----------------------------------------------
A-----------------------------------------------
E-----------------------------------------------

E---------------------------------------------
B---------------------------------------------
G-x-x-x-9b--x--9-9b11r9-----------------------
D---------------------------------------------
A---------------------------------------------
E---------------------------------------------

E----------------------------------------------
B-----------------------------2-2---2p0--------
G-9-9------9---4-4-----4------2-2-x-x----------
D-9-9---7--9---4-4---2-4---0--2-2-2-x---2-2----
A-7-7---7--7---2-2---2-2---0------0-----2-2----
E---------------------------------------0-0----

E----------------------- 
B----------------------- 
G-----------------------
D-----------------------
A-2-2-4-2-5-2-4-2/-\\---
E-0-0-0-0-0-0-0-0/-\\--- 
Comments