Aerosmith - Love In An Elevator Chords & Tabs

 

Love In An Elevator Chords & Tabs

Aerosmith Chords & Tabs

Version: 2 Type: Tab 0 ratings
1 star 2 stars 3 stars 4 stars 5 stars
comments

Love In An Elevator Tab

-------------------------------------------------------------------------------
			     Love in an elevator - Aerosmith
-------------------------------------------------------------------------------
Tabbed by: bop
Email: metalsick666@hotmail.com

Tuning: std.

e|---------------------------------------------------------------------------|
B|---------------------------------------------------------------------------|
G|---------------------------------------------------------------------------|
D|------------------------------------play-this-four-times-------------------|
A|-7/9-5-7---5---------------------------------------------------------------|
E|---------7---7~---7\5-3-5-3-5-0~-------------------------------------------|

e|---------------------------------------------------------------------------|
B|--------------------------------3~---------3---3---3-----------------------|
G|--------------------------------2~-----------------------------------------|
D|-2--------0---0---0-------------0~-----4/5---5---5---5\4--0~---------------|
A|-0----4/5---5---5---5\4--0-------------------------------------------------|
E|---------------------------------------------------------------------------|
[ Tab from: http://www.guitartabs.cc/tabs/a/aerosmith/love_in_an_elevator_tab_ver_2.html ]
e|---------------------------------------------------------------------------|
B|---------------------------------------------------------------------------|
G|-------------------5~------------------------------------------------------|
D|---------------5---5~-----just-repeat--------------------------------------|
A|-2-------------5---3~------------------------------------------------------|
E|-0--2--0--2/3--3-----------------------------------------------------------|

e|---------------------------------------------------------------------------|
B|-------------------8~------------------------------------------------------|
G|-------------------7~------------------------------------------------------|
D|----------6/7--7---5~-----repeat-this-to-----------------------------------|
A|-0--4--0--4/5--5-----------------------------------------------------------|
E|---------------------------------------------------------------------------|

e|-and-then-there's-this-MAJOR-ass-kicking-bridge-riff:----------------------|
B|---------------------------------------------------------------------------|
G|---------------------------------------------------------------------------|
D|---------------------------------------------------------------------------|
A|-----------------------------------4--5~~----------------------------------|
E|-0-00-0--4p0--0--5p0--0--6p0--7p0------------------------------------------|

e|-later-on-you-just-hit-the-open-e-string-one-time-but-the-rest's-the-same--|
B|---------------------------------------------------------------------------|
G|--this-is-the-majority-of-the-song.-have-fun-fuckers!!!!-------------------|
D|---------------------------------------------------------------------------|
A|---------------------------------------------------------------------------|
E|---------------------------------------------------------------------------|
Comments