Aerosmith - Love In An Elevator Chords & Tabs

 

Love In An Elevator Chords & Tabs

Aerosmith Chords & Tabs

Version: 1 Type: Tab 0 ratings
1 star 2 stars 3 stars 4 stars 5 stars
comments

Love In An Elevator Tab

Aerosmith
Love in an Elevator

Figure 1	
  Intro:
Guitar 1
1(----------------------------------------) 
2(----------------------------------------)
3(----------------------------------------)
4(--4--0--2-----0-------------------------)
5(-----------2-----2--1--0-----0-----2----)
6(--------------------------3-----3-----0-)

   Play this 4 times and then we have:
1(-----------------------------------------------------)
2(--------------------------------------3-----3--------)
3(-----------2-----2-----------2-----------------------)
4(-2---------------------------0---4h5-----5-----5p4p0-)
5(-0----4h5-----5-----5p4p0----------------------------)
6(-----------------------------------------------------)
[ Tab from: http://www.guitartabs.cc/tabs/a/aerosmith/love_in_an_elevator_tab.html ]
Figure 2
  Verse: 0:15
1(-------------------------------------------------------------)
2(-------------------------------------------------------------)
3(---------------------------------5------------------------5--)
4(---------------------------------5------------------------5--)
5(--2-----5--5---5--5---5----------3-----5--5-5-5-5------5--3--)
6(--0-----2--0---2--3---3----------------0--2-0-2-3------3-----)	
Work-in like a dog fo de boss man whoa! etc. 

Repeat this twice then play: 
1(--------------------------3---------------------------)  Play this
2(--------------------------3---------------------------)  twice
3(--------------------------0---------------------------)
4(--7----7--7--7--7---7-----0---7----7----7---7--7--7---)
5(--0----4--0--4--5---5-----X---0----4----0---4--5--5---)
6(--------------------------3---------------------------)
I kin-da hope we get stuck    Nobody gets out alive  etc.

Figure 3
  Interlude(2:13):    play this once        then repeat this
1(--------------------------------------I-----------------------------------)
2(--------------------------------------I-----------------------------------)
3(--------------------------------------I-----------------------------------)
4(--------------------------------------I-----------------------------------)
5(--------------------------------------I-----------------------------------)
6(-0-0-0-0--4p0--0-5p0-0-6p0--7p0--9-10-I-0--4p0--0--5p0--0--6p0--7p0--9-10-)


I'll have the rest out shortly. Enjoy!
Comments