Aerosmith - Living On The Edge Solo Chords & Tabs

 

Living On The Edge Solo Chords & Tabs

Aerosmith Chords & Tabs

Version: 1 Type: Tab 0 ratings
1 star 2 stars 3 stars 4 stars 5 stars
comments

Living On The Edge Solo Tab

                              Livin' On The Edge                                


                                                                       Aerosmith
Solo

                                                               
------------------|------------------|-----5--5--5-------------|
------------------|------------------|--8b---------8r---7-----|
------------------|------------------|---------------------------|
------------------|------------------|---------------------------|
------------------|------------------|---------------------------|
------------------|------------------|--------------------------|


                                                                
------------------|-----------------------------|-------------------|
------------------|--8r-8r-8r-8r-8r--6-----|--------------6/---|
------------------|-----------------------------|-------------------|
------------------|-----------------------------|-------------------|
------------------|-----------------------------|-------------------|
------------------|-----------------------------|-------------------|


                                                  
------------------------------|----------------------------|
--8b-8b---8b-8r--6-----|--5----5/------------------|
-----------------------------|----------9/-15------14--|
-----------------------------|-----------------------------|
-----------------------------|-----------------------------|
-----------------------------|-----------------------------|

[ Tab from: http://www.guitartabs.cc/tabs/a/aerosmith/living_on_the_edge_solo_tab.html ]
                                                                               
--14----------14----14-14h17h14-14-14-----|-----------------------------------------------|
--------------------------------------------------------|--17r-15-----17b---17-17r--15-15---|
--14------14-----------------------------------------|---------16----------------------------------|
--------------------------------------------------------|-----------------------------------------------|
--------------------------------------------------------|-----------------------------------------------|
--------------------------------------------------------|-----------------------------------------------|


                                                              
--------------------------------------|------------------------------------|
--15r-----15--15--15----15----|--12r-----12--12--12----------|
--------------------------------------|---------------------------12b----|
--------------------------------------|------------------------------------|
--------------------------------------|------------------------------------|
--------------------------------------|------------------------------------|


                                                
----------------------------------|----------14--------|
----------------------------------|--------------------|
------15/--14-14b---10b---|----------14--------|
----------------------------------|--------------------|
----------------------------------|--------------------|
----------------------------------|--------------------|


                                                                  
-----14----14----14----14-17--14----14-------|--------------------|
--17b---17b---17b---17b----------17----14r-|--14---------------|
--------------------------------------------------------|--------------------|
--------------------------------------------------------|--------------------|
--------------------------------------------------------|--------------------|
--------------------------------------------------------|--------------------|


Comments