Aerosmith - Let The Music Do The Talking Chords & Tabs

 

Let The Music Do The Talking Chords & Tabs

Aerosmith Chords & Tabs

Version: 1 Type: Tab 0 ratings
1 star 2 stars 3 stars 4 stars 5 stars
comments

Let The Music Do The Talking Tab

LET THE MUSIC DO THE TALKING
Tabbed By: TheKillerRabbitJTO 
Tuning:Standard
   
Intro     The 2nd Guitar Keeps hitting this G for the verse, bridge,+ intro
e|--------------------------------------------------------------------------|
B|--------------------------------------------------------------------------|
G|--------------------------------------------------------------------------|
D|-----------------------------------AND SO ON------------------------------|
A|--------------------------------------------------------------------------|
E|-3-3-3-3-3-3-3-3-3-3------------------------------------------------------|


e|----------------------|--|-1--1--1----1-1-1--|--|-------------------------|
B|------------------0---|--|-3--3--3----3-3-3--|--|-------------------------|
G|--/3---------3\0--0---|--|-------------------|X3|-----INTO MAIN RIFF------|
D|--/3---------3\0------|X2|-------------------|--|-------------------------|
A|----------------------|--|-------------------|--|-------------------------|
E|----------------------|--|-------------------|--|-------------------------|

MAIN RIFF used in verse and rest of intro
e|--------------------------------------------------------------------------|
B|--------------------------------------------------------------------------|
G|-16-16--16-14-12-14--9--7----3-0-0-5-0-0-3-0------------------------------|
D|-----------------------------3-0-0-5-0-0-3-0------------------------------|
A|--------------------------------------------------------------------------|
E|--------------------------------------------------------------------------|
[ Tab from: http://www.guitartabs.cc/tabs/a/aerosmith/let_the_music_do_the_talking_tab.html ]
Chorus
e|--------------------------------------------------------------------------|
B|--------------------------------------------------------------------------|
G|-0--3--2--0------3-0-0-0--4-0-0-0--5-5-5--5-------------------------------|
D|-0--3--2--0------3-0-0-0--4-0-0-0--5-5-5--5-------------------------------|
A|-0--3--2--0--------0-0-0----0-0-0--5-5-5--5-------------------------------|
E|--------------------------------------------------------------------------|

Bridge...  it starts like this
e|--------------------------------------------------------------------------|
B|--------------------------------------------------------------------------|
G|-12-10---------10-12-----REAPEAT------------------------------------------|
D|-------12---12------------------------------------------------------------|
A|--------------------------------------------------------------------------|
E|--------------------------------------------------------------------------|

SOLO?????????

Then during the bridge they start playing the "draw the line" riff
The ending notes are differnt tho.
e|----------------5/0---3---------------------------------------------------|
B|----------------5/0---3---------------------------------------------------|
G|--------------------------------------------------------------------------|
D|0-2-3-4-3-2-0-------------------------------------------------------------|
A|0-2-3-4-3-2-0-------------------------------------------------------------|
E|--------------------------------------------------------------------------|


Then Joe finishes his solo and they do the chorus over and over until the fade
Comments