Aerosmith - Last Child Chords & Tabs

 

Last Child Chords & Tabs

Aerosmith Chords & Tabs

Version: 2 Type: Bass Tab 0 ratings
1 star 2 stars 3 stars 4 stars 5 stars
comments

Last Child Bass Tab

   
-----------------------------------------------------------------------
LAST CHILD–Aerosmith 
-----------------------------------------------------------------------
Tabbed By: JScott
E-mail: penobypost@hotmail.com
This should be pretty close.

Tuning: ˝ Step Drop
Intro/Verses 
Guitar 1st
Gb|-------------------------------------------------------------------|
Db|-------------------------------------------------------------------|
Ab|--454------57------------------------------------------------------|
Eb|00-----0-0---------------------------------------------------------|

Bridge
Gb|----------024------------------------------------------------------|
Db|-------------------------------------------------------------------|
Ab|-------------------------------------------------------------------|
Eb|3-5555-55-----3----------------------------------------------------|
[ Tab from: http://www.guitartabs.cc/tabs/a/aerosmith/last_child_btab_ver_2.html ]
Chorus
Gb|--11-12-11-9\7-9---------------------------------------------------|
Db|0----------------0-------------------------------------------------|
Ab|-------------------0--0--0-----------------------------------------|
Eb|------------------------------------------------------------------|

Solo (Part 1)
Gb|-------------------------------------------------------------------|
Db|-------------------------------------------------------------------|
Ab|0-5-4-2-----7---5--7-----------------------------------------------|
Eb|--------3-----0----------------------------------------------------|

Solo (Part 2)
Gb|--11-12-11-9\7-9---------------------------------------------------|
Db|0----------------0-------------------------------------------------|
Ab|-------------------0--0--0-----------------------------------------|
Eb|-------------------------------------------------------------------|

Really need to listen to the CD for the correct timing and proper order.
Such a cool song.
| /  slide up
| \  slide down
| h  hammer-on
| p  pull-off
| ~  vibrato
| +  harmonic
| x  Mute note
=======================================================================
Comments