Aerosmith - Just Push Play Chords & Tabs

 

Just Push Play Chords & Tabs

Aerosmith Chords & Tabs

Version: 3 Type: Tab 0 ratings
1 star 2 stars 3 stars 4 stars 5 stars
comments

Just Push Play Tab

Aerosmith, Just Push Play.
Tabbed by mike, mikeman827@ultradave.com.
  
aerosmith-just push play
drop D tuning (tune low E string to D)

the first part in the beginning when tyler's saying "ah ah ah ah..." goes like this

E|--10-10-10-10-10---10--10--10-10----|
B|--10-10-10-10-10---10--10--10-10----|

[ Tab from: http://www.guitartabs.cc/tabs/a/aerosmith/just_push_play_tab_ver_3.html ]
E|-----------------------------------------------------------|
B|-----------------------------------------------------------|
G|-----------------------------------------------------------|
D|-----------------------------------------------------------|
A|---------5---5------------------5---5----------------------|
D|-0h5-6-7---7---7-6-5-0--0h5-6-7---7---7-5-0----------------|



then later he says a little bit containing the word "refried", i think, i dont know the lyrics.
this little part goes there:
D|---5--5--5--5---|
A|---5--5--5--5---| this just repeats a couple times.
D|---5--5--5--5---|


www.brizk.homestead.com 
:: Ultimate Guitar Archive :: 
http://www.ultimate-guitar.com 

Comments