Aerosmith - Just Push Play Chords & Tabs

 

Just Push Play Chords & Tabs

Aerosmith Chords & Tabs

Version: 1 Type: Bass Tab 0 ratings
1 star 2 stars 3 stars 4 stars 5 stars
comments

Just Push Play Bass Tab

Just Push Play Bass

Tabbed By Ender Z.
Band: Aerosmith
Album: Just Push Play
Bassist: Tom Hamilton

This is actually a very easy peice on the bass but for those who don't want to do it
by ear here's the Tabs.

Tuning: GDAD

It starts with the low D string feedback, just hit it a few times muted to the rythm
in the begining. Hit it once when the guitar is playing the high notes, then after the
guitar plays the intro  twice the Bass joins in:

Intro
|-------------------------------------------------|
|-------------------------------------------------|   X3
|----------5----5-------------------5---5---------|
|--0h5-6-7---7----7-6-5-0---0h5-6-7---7--7p5-0-0--|

|------------------|
|------------------|
|------------------| X2
|--5---5-5-555555--|

|------------------|     |-----|
|------------------|     |-----|
|----------5-------| X4  |-----|
|--0h5-6-7---7---0-|     |-/12\| The down slide is fast

|-------------------------------------------------|     
|-------------------------------------------------| X2  
|----------5----5-------------------5---5---------|     
|--0h5-6-7---7----7-6-5-0---0h5-6-7---7--7p5-0-0--|     

|------------------|
|------------------|
|------------------| X2
|--5---5-5-555555--|

|------------------|     
|------------------|     
|----------5-------| X4  
|--0h5-6-7---7---0-|  
[ Tab from: http://www.guitartabs.cc/tabs/a/aerosmith/just_push_play_btab.html ]
|------------------------|    |------------------|
|------------------------|    |------------------|
|------------------------| X4 |------------------|
|-77-7\0/7\0--77-7\0/7\0-|    |--7/9\\\0-0-------|

Then the lead guitar plays by himself a few times...

|---------------------------------------------|    |---------| 
|---------------------------------------------|    |---------| 
|---------------------5---------------5-------| X1 |---------| 
|--0--000--00-0h5-6-7---7--0--0h5-6-7---7--0--|    |-7777777-|

|---------------------------------|
|---------------------------------|
|---------5---------------5-------| X2
|-0h5-6-7---7--0--0h5-6-7---7--0--|

|-----------------------------------------------------------------|
|-----------------------------------------------------------------|
|-----------5------------------------------5----------------------| X3 
|0-0h5-6-7-------0---6h7-6-5---0---0h5-6-7-------0---6h7-6-5------|   

finish up with A|-5p4h5p4h5p4h5-|

|---------------------------------|
|---------------------------------|
|---------5---------------5-------| X2
|-0h5-6-7---7--0--0h5-6-7---7--0--|

|-------------------------------------------------|
|-------------------------------------------------|   X4
|----------5----5-------------------5---5---------|
|--0h5-6-7---7----7-6-5-0---0h5-6-7---7--7p5-0-0--|

Hit the last low D hard and let it ring and fade out. After that theres nothing really
noticable but if you want hit the low D muted in time to the music...

em@il any comments or corrections to Sparky_loves_coffee@yahoo.com
Comments