Aerosmith - Jaded Chords & Tabs

 

Jaded Chords & Tabs

Aerosmith Chords & Tabs

Version: 4 Type: Tab 0 ratings
1 star 2 stars 3 stars 4 stars 5 stars
comments

Jaded Tab

   
                                      JADED
                            As recorded by Aerosmith
                      (From the 2001 Album JUST PUSH PLAY)

Words and Music by Steven Tyler & Marti Frederiksen
Transcribed by www.mikesguitarsite.co.uk

         Asus2                 D5
      x 0 2 2 0 0          x x 0 2 3 x

Gtr I (E A D G B E) - 'Joe Perry - w/dist'
Gtr II (E A D G B E) - 'Brad Whitford - dist electric (doubled)'
Gtr III (E A D G B E) - 'Brad Whitford - acoustic'
Gtr IV (E A D G B E) - 'Joe Perry - Lead & Rhythm w/dist'
Gtr V (E A D G B E) - 'Fills - w/dist'

 Intro
  Q=120
                       Asus2
 4/4
  Gtr IV
                       |      |
                       /      /

  Gtr I
            <
            ~~~~~~~~~
|---------|--------------||------------------------|
|---------|--------------||o-----------------------|
|---------|--------------||------------------------|
|---------|-7----(7)---6-||--(6)-6-6-6-6-4-------6-|
|---------|------------0-||o-(0)-------------------|
|---------|--------------||------------------------|
|
| Gtrs II, III
|---------|--------------||--------0-----0---------|
|---------|------------0-||o-(0)---0-----2b3r(2)-0-|
|---------|------------2-||--(2)---2-------------2-|
|---------|------------2-||--(2)---2-------------2-|
|---------|------------0-||o-(0)-----------------0-|
|---------|--------------||------------------------|


                          |
                          /

|----------------------------|
|----------------------------|
|----------------------------|
|-(6)-6b7==(6)r(6)-4-6-4--6--|
|-------------------------0--|
|----------------------------|
|
|---------------0------------|
|-(0)-----------0---------0--|
|-(2)-----------2---------2--|
|-(2)-----------2---------2--|
|-(0)---------------------0--|
|----------------------------|


                                  1.
                               D5                  Asus2
   |                           |    |              |
   /                           /    /              /

|--------------------------------|--------------------||
|--------------------------------|-------------------o||
|------------------------------6-|-(6)-6--4-(4)-4-----||
|-(6)-6b7==(6)r(6)-4-6-4-------4-|-(4)-4--4-(4)-4--6--||
|-(0)----------------------------|-----------------0-o||
|--------------------------------|--------------------||
|
|---------------0------0---------|--------------------||
|-(0)-----------0------2b3r(2)-3-|-(3)---------------o||
|-(2)-----------2--------------2-|-(2)----------------||
|-(2)-----------2--------------0-|-(0)----------------||
|-(0)----------------------------|-------------------o||
|--------------------------------|--------------------||


                         Verse 1 & 2
  2.
  D5
   |
   /

                           ~~~
|---------------------||--(0)--------------|
|---------------------||o-(0)--------------|
|-(6)-(6)--4-(4)-4--2-||--(2)--------------|
|-(4)-(4)--4-(4)-4----||-------------------|
|---------------------||o------------------|
|---------------------||-------------------|
|
|---------------------||-------0--(0)-0----|
|-(3)-----------------||o------0--(0)-0--0-|
|-(2)---------------2-||--(2)--2--(2)-2--2-|
|-(0)---------------2-||--(2)--2--(2)----2-|
|-------------------0-||o-(0)--0--(0)------|
|---------------------||-------------------|


  Gtrs II, III
|------0--(0)------|------0--(0)------|----------------|
|-(0)--0--(0)-0--0-|-(0)--0--(0)-0--3-|-(3)----3-3-3-0-|
|-(2)--2--(2)-2--2-|-(2)--2--(2)-2--2-|-(2)----2-2-2-2-|
|-(2)--2--(2)-2--2-|-(2)--2--(2)-2--0-|-(0)----0-0-0-2-|
|------0--(0)----0-|-(0)--0--(0)------|--------------0-|
|------------------|------------------|----------------|


|------0--(0)-0----|------0--(0)------|------------------|
|-(0)--0--(0)-0--0-|-(0)--0--(0)-0--0-|-(0)--0--(0)-0--3-|
|-(2)--2--(2)-2--2-|-(2)--2--(2)-2--2-|-(2)--2--(2)-2--2-|
|-(2)--2--(2)----2-|-(2)--2--(2)-2--2-|-(2)--2--(2)-2--0-|
|-(0)--0--(0)------|------0--(0)----0-|-(0)--0--(0)-0----|
|------------------|------------------|------------------|


                  Pre-Chorus
  Gtr I
|-------------7-||-(7)--------------|----------------7-|
|-------------7-||-(7)--------------|----------------7-|
|-------------7-||-(7)--------------|----------------7-|
|-------------9-||-(9)--------------|----------------9-|
|---------------||------------------|------------------|
|---------------||------------------|------------------|
|
| Gtrs II, III
|---------------||------0--(0)------|------0--(0)------|
|-(3)----3-3----||--2----------2--2-|-(2)---------0--2-|
|-(2)----2-2----||--2-------------2-|-(2)--------------|
|-(0)----0-0----||--0-------------0-|-(0)--------------|
|-------------2-||------------------|------------------|
|---------------||------------------|------------------|


                           Chorus
                    2/4    4/4
                         Gtr IV
|-(7)--------------|-----||---------------|-------------------|
|-(7)--------------|-----||---------------|-------------------|
|-(7)--------------|-----||---------------|-------------------|
|-(9)--------------|-----||---------------|-------------------|
|------------------|-----||-0-----0-2-4---|-------------------|
|------------------|-----||-------------2-|-(2)----0h2-0-2-0--|
|
|-------0----------|-----||-0--0--0-0-0-0-|--0---0---0-0-0-0--|
|-----------2-0--2-|-----||-2--2--2-2-2-2-|--2---2---2-2-2-2--|
|--2------2------2-|-----||-2--2--2-2-2-2-|--2---2---2-2-2-2--|
|----------------0-|-----||-2--2--2-2-2-2-|--2---2---2-2-2-2--|
|-----2------------|-----||-0--0--0-0-0-0-|-------------------|
|------------------|-----||---------------|--2---2---2-2-2-2--|


     ~
|---------------|-----------------|---------------|
|---------------|-----------------|---------------|
|---------------|-------------2---|---------------|
|-------------2-|-(2)--2--2-4---4-|---------------|
|-4--4--4-2-4---|-----------------|-0-----0-2-4---|
|---------------|-----------------|-------------2-|
|
|-0--0--0-0-0---|--0---0--0-0-0-0-|-0--0--0-0-0-0-|
|-5--5--5-5-5---|--0---0--0-0-0-0-|-2--2--2-2-2-2-|
|-6--6--6-6-6---|--1---1--1-1-1-1-|-2--2--2-2-2-2-|
|-6--6--6-6-6---|--2---2--2-2-2-2-|-2--2--2-2-2-2-|
|-4--4--4-4-4---|--2---2--2-2-2-2-|-0--0--0-0-0-0-|
|-------------0-|--0---0--0-0-0-0-|---------------|


                        ~                              ~~~~~~~~~~~~~
|------------------|---------------|-----------------|-----------------|
|------------------|---------------|-----------------|-----------------|
|------------------|---------------|-------------2---|-----------------|
|------------------|-------------2-|-(2)--2--2-4---4-|-----------------|
|------------------|-4--4--4-2-4---|-----------------|-5--5--5---5\----|
|-(2)--2-0-2-0-2-0-|---------------|-----------------|-----------------|
|
|--0---0---0-0-0-0-|-0--0--0-0---0-|-(0)--0--0-0-0-0-|-2--2--2-2-2--2--|
|--2---2---2-2-2-2-|-5--5--5-5---0-|-(0)--0--0-0-0-0-|-3--3--3-3-3--3--|
|--2---2---2-2-2-2-|-6--6--6-6---1-|-(1)--1--1-1-1-1-|-2--2--2-2-2--2--|
|--2---2---2-2-2-2-|-6--6--6-6---2-|-(2)--2--2-2-2-2-|-0--0--0-0-0--0--|
|------------------|-4--4--4-4---2-|-(2)--2--2-2-2-2-|-----------------|
|--2---2---2-2-2-2-|-----------0-0-|-(0)--0--0-0-0-0-|-----------------|


         Gtr I
|-----------|--------------------|
|-----------|--------------------|
|-----------|--------------------|
|---------6-|-(6)-6-6-6--6--4--6-|
|-2-------0-|-(0)---0-0--0-----0-|
|-----------|--------------------|
|
|-2---------|-------0---(0)------|
|-3-------0-|-(0)---0---(0)----0-|
|-4-------2-|-(2)---2---(2)----2-|
|-4-------2-|-(2)--------------2-|
|-2-------0-|-(0)--------------0-|
|-----------|--------------------|


 1.                             2.
                                                       Gtr IV
|-------------------------0--||------------------------4-4-||
|-------------------------0-o||------------------------5-5-||
|-------------------------2--||---------------------4--4-4-||
|-(6)-6b7==(6)r(6)-4-6-4-----||-(6)-6b7==(6)r(6)4-6-4------||
|-(0)-----------------------o||-(0)------------------------||
|----------------------------||----------------------------||
|
|----------------------------||----------------------------||
|-(0)-----------0-----------o||-(0)-2---------2p0-0--------||
|-(2)-----------2---------2--||-(2)-2---------2---2--------||
|-(2)-----------2---------2--||-(2)-2---------2---2--------||
|-(0)-----------0---------0-o||-(0)-0---------0---0--------||
|----------------------------||----------------------------||


 Bridge
  Gtr IV
|--4---4---2---0--|-----4---2---0--|------4---2---0--|-----4---2---5---|
|--5-0---0---0----|----------------|----0---0---0----|-----------------|
|--4--------------|---2---2---2----|-----------------|---2---2---2-----|
|-----------------|-0--------------|--2--------------|-0---------------|
|-----------------|----------------|-----------------|-----------------|
|-----------------|----------------|-----------------|-----------------|
|
| Gtrs II, III
|-!0--------------|-2--------------|-!0--------------|-2---------------|
|-!0--------------|-3--------------|-!0--------------|-3---------------|
|-!1--------------|-2--------------|-!1--------------|-4---------------|
|-!2--------------|-0--------------|-!2--------------|-4---------------|
|-!2--------------|----------------|-!2--------------|-2---------------|
|-!0--------------|----------------|-!0--------------|-----------------|


|-----4----2----0---|-------4----2----0---|
|---0---0-----0-----|---------------------|
|-------------------|-----2---2-----2-----|
|-2---------------0-|--0------------------|
|-------------------|-------------------3-|
|-------------------|---------------------|
|
|-0-------(0)-----2-|-(2)-------(2)-------|
|-0-------(0)-----3-|-(3)-------(3)-----5-|
|-1-------(1)-----2-|-(2)-------(2)-----5-|
|-2-------(2)-----0-|-(0)-------(0)-----5-|
|-2-------(2)-------|-------------------3-|
|-0-------(0)-------|---------------------|


                    ~~~
|--------------------------|---------------------------|
|---------5b6==(5)r(5)-----|---------4b5==(4)r(4)------|
|-------5------------------|-------4-------------------|
|-----5--------------------|-----4---------------------|
|-(3)--------------------2-|-(2)--------------------1--|
|--------------------------|---------------------------|
|
|--------------------------|---------------------------|
|-(5)--------------(5)---4-|-(4)--------------(4)---3--|
|-(5)--------------(5)---4-|-(4)--------------(4)---3--|
|-(5)--------------(5)---4-|-(4)--------------(4)---3--|
|-(3)--------------(3)---2-|-(2)--------------(2)---1--|
|--------------------------|---------------------------|


|--------------------------|--------------------------------------||
|---------3b4==(3)r(3)-----|-----3b4==(3)r(3)--3b4==(3)r(3)-------||
|-------3------------------|--------------------------------------||
|-----3--------------------|--------------------------------------||
|-(1)--------------------1-|-(1)--------------------------------0-||
|--------------------------|--------------------------------------||
|
|--------------------------|--------------------------------------||
|-(3)---3------------------|-(3)----------------------------(3)-0-||
|-(3)---3------------------|-(3)----------------------------(3)-2-||
|-(3)---3------------------|-(3)----------------------------(3)-2-||
|-(1)---1------------------|-(1)----------------------------(1)-0-||
|--------------------------|--------------------------------------||
|
| Gtr I
|--------------------------|--------------------------------------||
|--------------------------|--------------------------------------||
|--------------------------|--------------------------------------||
|--------------------------|--------------------------------------||
|--------------------------|--------------------------------------||
|--------------------------|--------------------------------------||

[ Tab from: http://www.guitartabs.cc/tabs/a/aerosmith/jaded_tab_ver_4.html ]
 Guitar Solo
|---------------------|-------------------------------|
|---------------------|-------------------------------|
|--9\---6\----2-------|---------------2----(2)-/6--9--|
|----------------4--2-|-(2)-4-------------------------|
|---------------------|-------------------------------|
|---------------------|-------------------------------|
|
|---------------------|---------------0---------------|
|-(0)---0----(0)-0--0-|-(0)-----------0------------0--|
|-(2)---2----(2)-2--2-|-(2)-----------2------------2--|
|-(2)---2----(2)-2--2-|-(2)-----------2------------2--|
|-(0)------------0--0-|-(0)-----------0------------0--|
|---------------------|-------------------------------|
|
|---------------------|-------------------------------|
|---------------------|-------------------------------|
|---------------------|-------------------------------|
|--6--6-6--6--6--4--6-|-(6)-6b7==(6)r(6)-4--6---4--6--|
|--0------------------|----------------------------0--|
|---------------------|-------------------------------|


|---------------------------|-------12------------------------------||
|----------9-(9)-10--12b14==|=(12)r-----12pb14-10-(10)-12-9b10==(9)r||
|--9--11--------------------|---------------------------------------||
|---------------------------|---------------------------------------||
|---------------------------|---------------------------------------||
|---------------------------|---------------------------------------||
|
|---------------------------|------------------------------------0--||
|-(0)----0------------3-----|--(3)-------2-----------------------0--||
|-(2)----2------------2-----|--(2)-------2-----------------------2--||
|-(2)----2------------0-----|--(0)-------0-----------------------2--||
|-(0)----0------------------|------------------------------------0--||
|---------------------------|---------------------------------------||
|
| Gtr V
|--------------------12b14==|=(12)r(12)--9-----12-(12)--------------||
|---------------------------|--------------------------12-9b10==(9)r||
|---------------------------|---------------------------------------||
|---------------------------|---------------------------------------||
|---------------------------|---------------------------------------||
|---------------------------|---------------------------------------||


 3rd Verse
|--------------------------------------------------|
|-(9)b10==(9)r(9)b10==(9)r(9)b10==(9)r(9)b10==(9)r-|
|--------------------------------------------------|
|--------------------------------------------------|
|--------------------------------------------------|
|--------------------------------------------------|
|
|-(0)----------0-------------------0---0-----------|
|-(0)----------0-------------------0---0-------0---|
|-(2)----------2-------------------2-----------2---|
|-(2)----------2-------------------------------2---|
|-(0)----------0-------------------------------0---|
|--------------------------------------------------|
|
|--------------------------------------------------|
|-(9)b10==(9)r(9)b10==(9)r(9)b10==(9)r(9)b10==(9)r-|
|--------------------------------------------------|
|--------------------------------------------------|
|--------------------------------------------------|
|--------------------------------------------------|


                          Gtr I
                                 <
|------------|------------|---------------7-||
|------------|------------|---------------7-||
|------------|------------|------7--(7)---7-||
|------------|------------|------7--(7)-----||
|------------|------------|-----------------||
|------------|------------|-----------------||
|
|----0-------|----0-------|-----------------||
|-0--0-----0-|-0--0-----3-|-(3)--3----------||
|-2--2-----2-|-2--2-----2-|-(2)--2----------||
|-2--2-----2-|-2--2-----0-|-(0)--0----------||
|-0--0-----0-|-0--0-------|---------------2-||
|------------|------------|-----------------||


 Pre-Chorus
                        <
|-(7)----------------|---------------^7-|-(7)----------------|
|-(7)----------------|---------------^7-|-(7)----------------|
|-(7)----------------|--7------(7)---^7-|-(7)----------------|
|--------------------|--7------(7)------|--------------------|
|--------------------|------------------|--------------------|
|--------------------|------------------|--------------------|
|
|--0---0---0---------|------0-----------|------0---0---------|
|--2---2---2b3r(2)-2-|-(2)--2-----------|--2---2---2b3r(2)-2-|
|--2---2-----------2-|-(2)--2-----------|--2---2-----------2-|
|--0---0-----------0-|-(0)--0-----------|--0---0-----------0-|
|------2-------------|----------------2-|------2-------------|
|--------------------|------------------|--------------------|


                            Chorus
                3/4         4/4             7/8
                          Gtr IV
|--------------|----------||---------------|---------------|
|--------------|----------||---------------|---------------|
|--------------|----------||---------------|---------------|
|--------------|----------||---------------|---------------|
|--------------|----------||-0--0--0-2-4---|-----------2s==|
|--------------|----------||-------------2-|-2-----2-0-----|
|
|------0-------|----------||-0--0--0-0-0-0-|-0--0--0-0-0---|
|-(2)--2-----2-|-(2)------||-2--2--0-0-0-0-|-2--2--2-2-2---|
|-(2)--2-----2-|-(2)------||-2--2--2-2-2-2-|-2--2--2-2-2---|
|-(0)--0-----0-|-(0)------||-2--2--2-2-2-2-|---------------|
|------------2-|-(2)------||-0--0--0-0-0-0-|---------------|
|--------------|----------||---------------|-2--2--2-2-2---|


 4/4
|------------------------------------|
|------------------------------------|
|------------------------------------|
|-------------------------------2----|
|--4------4--------4----2----4-------|
|------------------------------------|
|
|--0------0-------(0)---0----0--0----|
|--5------5-------(5)---5----5--0----|
|--6------6-------(6)---6----6--1----|
|--6------6-------(6)---6----6--2----|
|--4------4-------(4)---4----4--2----|
|-------------------------------0----|
|
| Gtr V
|-12-----12------(12)--12------12----|
|-12-----12------(12)--12------12----|
|-11b13--11b13===(11)r-11b13---11b13r|
|------------------------------------|
|------------------------------------|
|------------------------------------|


    ~~~~
|------------------------|---------------|---------------|
|------------------------|---------------|---------------|
|--------------------2---|---------------|---------------|
|--(2)---------2--4----4-|---------------|---------------|
|------------------------|-0-----0-2-4---|---------------|
|------------------------|-------------2-|-2-----2-0-2-0-|
|
|--(0)---------0--0--0---|-0--0--0-0-0-0-|-0--0--0-0-0-0-|
|--(0)---------0--0--0---|-2--2--0-0-0-0-|-2--2--0-0-0-0-|
|--(1)---------1--1--1---|-2--2--2-2-2-2-|-2--2--2-2-2-2-|
|--(2)---------2--2--2---|-2--2--2-2-2-2-|-2--2--2-2-2-2-|
|--(2)---------2--2--2---|-0--0--0-0-0-0-|---------------|
|--(0)---------0--0--0---|---------------|-2--2--2-2-2-2-|
|
|-------------12-12-12---|---------------|---------------|
|------12-----12-12-12---|---------------|---------------|
|-(11)--9------9--9--9---|---------------|---------------|
|----------11------------|---------------|---------------|
|------------------------|---------------|---------------|
|------------------------|---------------|---------------|


|-----------------------------------|
|-----------------------------------|
|-----------------------------------|
|--------------------------------2--|
|--4------4------4----2--4----------|
|-----------------------------------|
|
|--0------0------0----0--0-------0--|
|--5------5------5----5--5-------0--|
|--6------6------6----6--6-------1--|
|--6------6------6----6--6-------2--|
|--4------4------4----4--4-------2--|
|--------------------------------0--|
|
|-12-----12-----12------12------12--|
|-12-----12-----12------12------12--|
|-11b13--11b13--11b13---11b13==(11)r|
|-----------------------------------|
|-----------------------------------|
|-----------------------------------|


   ~~~~~~~~
|---------------------------------|---------------|
|---------------------------------|---------------|
|-----------------------------2---|---------------|
|-(2)----2---------2-------4----4-|---------------|
|---------------------------------|-0--0--0-2-4---|
|---------------------------------|-------------2-|
|
|-(0)-----------------------------|-0--0--0-0-0-0-|
|-(0)-----------------------------|-2--2--2-2-2-2-|
|-(1)-----------------------------|-2--2--2-2-2-2-|
|-(2)-----------------------------|-2--2--2-2-2-2-|
|-(2)-----------------------------|-0--0--0-0-0-0-|
|-(0)-----------------------------|---------------|
|
|-12--12---12-------------12-12---|---------------|
|-12--12---12-----12------12-12---|---------------|
|-11---9---11b13==11r(11)-11--9---|---------------|
|---------------------------------|---------------|
|---------------------------------|---------------|
|---------------------------------|---------------|


                        ~
|------------------|---------------|-----------------|---------------|
|------------------|---------------|-----------------|---------------|
|------------------|---------------|-------------2---|---------------|
|------------------|-------------2-|-(2)--2--2-4---2-|-0--0--0-------|
|--------------2-3-|-4--4--4-2-4---|-----------------|-0--0--0-------|
|-2--2-0-2-0-2-----|---------------|-----------------|---------2-2-2-|
|
|-0--0---0-0-0-0---|-0--0--0-0-0-0-|--0---0--0-0-0-0-|---------------|
|-2--2---2-2-2-2---|-5--5--5-5-5-0-|--0---0--0-0-0-0-|-7-----7-7-7-7-|
|-2--2---2-2-2-2---|-6--6--6-6-6-1-|--1---1--1-1-1-1-|-7-----7-7-7-7-|
|-2--2---2-2-2-2---|-6--6--6-6-6-2-|--2---2--2-2-2-2-|-7-----7-7-7-7-|
|------------------|-4--4--4-4-4-2-|--2---2--2-2-2-2-|-5-----5-5-5-5-|
|-2--2---2-2-2-2---|-------------0-|--0---0--0-0-0-0-|---------------|


                  ~~~~~~~~~~~~~~~~~~~~~~~~~~~~
|---------------|---------------|---------------|
|---------------|---------------|---------------|
|---------------|---------------|---------------|
|---------------|---------------|---------------|
|---------------|---------------|---------------|
|-2--2--2-2-2-0-|-5--5--5---5---|-2--2--2---2---|
|
|-2--2--2-2-2-2-|---------------|-2--2--2-2-2-2-|
|-2--2--2-2-2-2-|-7--7--7-7-7-7-|-2--2--2-2-2-2-|
|-2--2--2-2-2-2-|-7--7--7-7-7-7-|-2--2--2-2-2-2-|
|-4--4--4-4-4-4-|-7--7--7-7-7-7-|-4--4--4-4-4-4-|
|-4--4--4-4-4-4-|-5--5--5-5-5-5-|-4--4--4-4-4-4-|
|-2--2--2-2-2-2-|---------------|-2--2--2-2-2-2-|


                               Outro
                          Gtr I
  ~~~~~~~~~~~~~
|----------------|-----------||-------------------------|
|----------------|-----------||-------------------------|
|----------------|-----------||-------------------------|
|----------------|---------6-||-(6)-6-6-6--6--4-------6-|
|-5--5--5---5\---|-2-------0-||-(0)-------------------0-|
|----------------|-----------||-------------------------|
|
|----------------|-7---------||-------0---(0)-0---------|
|-7--7--7-7-7--7-|-7-------0-||-(0)---0---(0)-2b3r(2)-0-|
|-7--7--7-7-7--7-|-7-------2-||-(2)---2---(2)---------2-|
|-7--7--7-7-7--7-|---------2-||-(2)---2---(2)---------2-|
|-5--5--5-5-5--5-|---------0-||-(0)-------------------0-|
|----------------|-----------||-------------------------|


                ~~~
|---------------------------|----------------------------------|--------*|
|---------------------------|----------------------------------|--------*|
|---------------------------|----------------------------------|--------*|
|-(6)-6b7==(6)r(6)-4-6-4--6-|-(6)-6b7==(6)r(6)-4--6--4s===2--2-|-(2)----*|
|-(0)---------------------0-|-(0)----------------------------0-|-(0)----*|
|---------------------------|----------------------------------|--------*|
|
|---------------0-----------|---------------0----(0)-0---------|--------*|
|-(0)-----------0---------0-|-(0)-----------0----(0)-2b3r(2)-0-|-(0)----*|
|-(2)-----------2---------2-|-(2)-----------2----(2)---------2-|-(2)----*|
|-(2)-----------2---------2-|-(2)-----------2----(2)---------2-|-(2)----*|
|-(0)---------------------0-|-(0)----------------------------0-|-(0)----*|
|---------------------------|----------------------------------|--------*|


Tablature Legend
----------------
 h   - hammer-on
 p   - pull-off
 b   - bend
 pb  - pre-bend
 r   - bend release (if no number after the r, then release immediately)
 /\  - slide into or out of (from/to "nowhere")
 s   - legato slide
 S   - shift slide
  - natural harmonic
[n]  - artificial harmonic
n(n) - tapped harmonic
 ~   - vibrato
 tr  - trill
 T   - tap
 TP  - trem. picking
 PM  - palm muting
\n/  - tremolo bar dip; n = amount to dip
 \n  - tremolo bar down
 n/  - tremolo bar up
/n\  - tremolo bar inverted dip
 =   - hold bend; also acts as connecting device for hammers/pulls
 <>  - volume swell (louder/softer)
 x   - on rhythm slash represents muted slash
 o   - on rhythm slash represents single note slash

Misc Legend
-----------
 |  - bar
||  - double bar
||o - repeat start
o|| - repeat end
*|  - double bar (ending)
 :  - bar (freetime)
 $  - Segno
 &  - Coda
Tempo markers -  = BPM(8/16=s8/s16), where s8 = swing 8ths, s16 = swing 16ths


***************************************************************************************
* Generated using Power Tab Editor by Brad Larsen - http://powertab.guitarnetwork.org *
***************************************************************************************
Comments