Aerosmith - Jaded Chords & Tabs

 

Jaded Chords & Tabs

Aerosmith Chords & Tabs

Version: 1 Type: Tab 0 ratings
1 star 2 stars 3 stars 4 stars 5 stars
comments

Jaded Tab

Intro   ~~~~~~~~                                         |------|
|-------------------------------------------|-------|------|------------------|
|-------------------------------------------|-------|------|------------------|
|-------------------------------------------|-------|------|------------------|
|--7-----(7)----6--(6)--6--6--6--6--4----6--|-(6)--6^-(6)-(6)--4--6--4-----6--|
|---------------0--(0)----------------------|------------------------------0--|
|-------------------------------------------|---------------------------------|
        |------|
|-------|------|------------------|-----------------------------|
|-------|------|------------------|-----------------------------|
|-------|------|---------------6--|-(6)--6-----4--(4)--4--------|
|-(6)--6^-(6)-(6)--4--6--4-----4--|-(4)--4-----4--(4)--4-----6--|
|-(0)-----------------------------|--------------------------0--|
|---------------------------------|-----------------------------|
                            ~~~ |-----------------------------|
|-----------------------------||--(6)--6-----4--(4)--4-----2-|
|--(4)--4-----4--(4)--4-------||-----------------------------|
|-----------------------------|PLAY TWICE!

THE CHORUS IS A5      F5#    C5#     C5#/B5   C5#/E5


[ Tab from: http://www.guitartabs.cc/tabs/a/aerosmith/jaded_tab.html ]
Comments