Aerosmith - Dude Looks Like A Lady Chords & Tabs

 

Dude Looks Like A Lady Chords & Tabs

Aerosmith Chords & Tabs

Version: 3 Type: Tab 0 ratings
1 star 2 stars 3 stars 4 stars 5 stars
comments

Dude Looks Like A Lady Tab

   
Dude (Look like a Lady)

This is an awesome song that got me liking Aerosmith.
Now I don't know where I'd be without them.

126
Intro, (Played through most of the song)
  A5
e-----------------
B-----5-5-----5-5-
G-----2-2-----2-2-
D-----------------
A-----------------
E-----------------

Intro, Part 2
  A5    G5  A5         D   Dsus4 D 
e-5-5-5-3-3-5-5---}{---2-----3---3~~~
B-5-5-5-3-3-5-5---}{---3-----3---3~~~
G-2-2-2-0-0-2-2---}{---2-----2---2~~~
D-----------------}{-0---0-0---0-----
A-----------------}{-----------------
E-----------------}{-----------------
}{
}{ A5    G5  A5         D   Dsus4 D
e-5~~~~~3---5-5~~~}{-----------------
B-5~~~~~3---5-5~~~}{-----------------
G-2~~~~~0---2-2~~~}{-2-2-4-2-5-2-4-2-
D-2~~~~~0---2-2~~~}{-0-0-0-0-0-0-0-0-
A-0~~~~~----0-0~~~}{-----------------
E-----------------}{-----------------
[ Tab from: http://www.guitartabs.cc/tabs/a/aerosmith/dude_looks_like_a_lady_tab_ver_3.html ]
Verse
  A5    G5  A5         D   Dsus4 D
e-5-5-5---3-5-5---}{-2-2-2-3-3---2---
B-5-5-5---3-5-5---}{-3-3-3-3-3-3-3---
G-2-2-2-0-0-2-2---}{-2-2-2-----2-----
D-------0-0-------}{-0-0-0-0-0-0-0-0-
A-0-0-0-----------}{-----------------
E-----------------}{-----------------
}{
}{A5    G5  A5         D   Dsus4 D
e-5~~~~~3-3-5-5~~~}{-----------------
B-5~~~~~3-3-5-5~~~}{-----------------
G-2~~~~~0-0-2-2~~~}{-2-2-4-2-5-3-4-3-
D-2~~~~~0-0-2-2~~~}{-0-0-0-0-0-0-0-0-
A-0~~~~~----0-0~~~}{-----------------
E-----------------}{-----------------



Bridge
  A5    G5  A5       F			   3X
e-5-5-5-3-3-5-5~~~}{-1~~~~~~~~~~~---- }{
B-5-5-5-3-3-5-5~~~}{-1~~~~~~~~~~~---- }{
G-2-2-2-0-0-2-2~~~}{-2~~~~~~~~~~~----O}{
D-2-2-2-0-0-2-2~~~}{-3~~~~~~~~~~~----O}{
A-0-0-0-----0-0~~~}{-3~~~~~~~~~~~---- }{
E-----------------}{-1~~~~~~~~~~~---- }{


e-----------------}{-0~~~~~~~~~~~----}{-3~~~~~~~~~~~~~~~}{
B-----------------}{-0~~~~~~~~~~~----}{-3~~~~~~~~~~~~~~~}{
G-7-7-7-5-5-5-7---}{-1~~~~~~~~~~~----}{-4~~~~~~~~~~~~~~~}{
Dó7-7-7-5-5-5-7---}{-2~~~~~~~~~~~2~~~}{-5~~~~~~~~~~~~~~~}{
A-5-5-5-3-3-3-5---}{-2~~~~~~~~~~~2~~~}{-5~~~~~~~~~~~~~~~}{
E-----------------}{-0~~~~~~~~~~~0~~~}{-3~~~~~~~~~~~~~~~}{

Order:
Intro
Chorus
Verse
Chorus
Verse
Chorus
Verse
Chorus
Bridge
Verse (Solo) You make it up, don't steal!
Bridge 2
Chorus

Peace out my homie g slices!  hehehe
Comments