Aerosmith - Dude Looks Like A Lady Chords & Tabs

 

Dude Looks Like A Lady Chords & Tabs

Aerosmith Chords & Tabs

Version: 1 Type: Bass Tab

Dude Looks Like A Lady Bass Tab

G------------------------------------------------
D---7---5---7------------------------------------
A-----------------5---7--5-----------------------
E------------------------------------------------
[ Tab from: http://www.guitartabs.cc/tabs/a/aerosmith/dude_looks_like_a_lady_btab.html ]
G------------------------------------------------
D---7---5---7---3(x3)---------------------5------
A---------------------------5---3---5---7--------
E------------------------------------------------


G------------------------------------------------
D----------------------5-------------------------
A---7---5---7(x4)--------------------------------
E------------------------------------------------