Aerosmith - Draw The Line Chords & Tabs

 

Aerosmith Chords & Tabs

Version: 1 Type: Tab 0 ratings
1 star 2 stars 3 stars 4 stars 5 stars
comments

Draw The Line Tab

----------------------------------------------------------------------------
			 Draw the Line - Aerosmith
----------------------------------------------------------------------------

Tabbed by:mccabe24
Tuning:EADGBE (standard)

Intro:
e|----------------|----------------|0---0---0-0-0---|0-----7---------|
B|----------------|----------------|5---5---5-5-5---|4---4-----------|
G|----------------|----------------|----------------|----------------|
D|5-------5-------|----------------|----------------|----------------|
A|5-------5-------|----------------|----------------|----------------|
E|3-------3-------|----------------|----------------|----------------|

e|11-9------------|----------------|----------------|5---------------|
B|------12-10--9--|7-9-------------|----------------|--5---0---------|
G|----------------|------9---------|----------------|------9---------|
D|----------------|----------------|----------------|----7-----------|
A|----------------|----------------|0-2-3-4-3-2-0---|----------------|
E|----------------|----------------|----------------|----------------|

e|----------------|5---------------|
B|----------------|--5---0---------|
G|----------------|------9---------|
D|----------------|----7-----------|
A|0-2-3-4-3-2-0---|----------------|
E|----------------|----------------|

Riff 1:
e|----------------|----------------|----------------|5---------------|
B|----------------|----------------|----------------|--5---0---------|
G|----------------|----------------|----------------|------9---------|
D|2---2---2-2-2-2-|2-2-2-2-2-2-2-2-|----------------|----7-----------|
A|2---2---2-2-2-2-|2-2-2-2-2-2-2-2-|0-2-3-4-3-2-0---|----------------|
E|0---0---0-0-0-0-|0-0-0-0-0-0-0-0-|----------------|----------------|

Riff 2:
e|----------------|----------------|----------------|----------------|
B|----------------|----------------|----------------|----------------|
G|7---7---7-7-7-7-|----------------|----------------|----------------|
D|7---7---7-7-7-7-|2---2---2-2-2-2-|5---5---5-5-5-5-|5-5-5-5-5-5-5---|
A|5---5---5-5-5-5-|2---2---2-2-2-2-|5---5---5-5-5-5-|5-5-5-5-5-5-5---|
E|----------------|0---0---0-0-0-0-|3---3---3-3-3-3-|3-3-3-3-3-3-3---|

Riff 3:
e|----------------|5---------------|
B|----------------|--5---0---------|
G|----------------|------9---------|
D|----------------|----7-----------|
A|0-2-3-4-3-2-0---|----------------|
E|----------------|----------------|
[ Tab from: http://www.guitartabs.cc/tabs/a/aerosmith/draw_the_line_tab.html ]
Riff 4:
e|0-0-0---0-0-0-0-|0-0-0---0-0-0-0-|----------------|5---------------|
B|0-0-0---0-0-0-0-|0-0-0---0-0-0-0-|----------------|--5---0---------|
G|1-1-1---1-1-1-1-|1-1-1---1-1-1-1-|----------------|------9---------|
D|2-2-2---2-2-2-2-|2-2-2---2-2-2-2-|----------------|----7-----------|
A|2-2-2---2-2-2-2-|2-2-2---2-2-2-2-|0-2-3-4-3-2-0---|----------------|
E|0-0-0---0-0-0-0-|0-0-0---0-0-0-0-|----------------|----------------|

Riff 5:
e|----------------|----------------|----------------|----------------|
B|----------------|----------------|----------------|----------------|
G|7---7---7-7-7-7-|----------------|----------------|----------------|
D|7---7---7-7-7-7-|2-2-2-2-2-2-2-2-|5---5---5-5-5-5-|5-5-5-5-5-5-5-5-|
A|5---5---5-5-5-5-|2-2-2-2-2-2-2-2-|5---5---5-5-5-5-|5-5-5-5-5-5-5-5-|
E|----------------|0-0-0-0-0-0-0-0-|3---3---3-3-3-3-|3-3-3-3-3-3-3-3-|

Solo:
e|----------------|5---------------|----------------|5-----7-----5-3-|
B|----------------|--5---0---------|--0---2-1-0-----|--5---8-----7-5-|
G|----------------|------9---------|2---2-------2---|----------------|
D|----------------|----7-----------|----------------|----7-----------|
A|0-2-3-4-3-2-0---|----------------|----------------|----------------|
E|----------------|----------------|----------------|----------------|

e|7-----7-10------|------10--101012|----12--10--1512|----9-----12--12|
B|8---8-8-12------|--8---8----8-8--|10--------------|----10--1010--10|
G|----------------|6---6-----------|----------------|----------------|
D|----------------|----------------|----------------|----------------|
A|----------------|----------------|----------------|----------------|
E|----------------|----------------|----------------|----------------|

Riff 6:
e|----------------|----------------|----------------|----------------|
B|----------------|----------------|----------------|----------------|
G|7---7---7-7-7-7-|----------------|----------------|----------------|
D|7---7---7-7-7-7-|2---2---2-2-2-2-|5-5-5-5-5-5-5-5-|5-5-5-5-5-5-5---|
A|5---5---5-5-5-5-|2---2---2-2-2-2-|5-5-5-5-5-5-5-5-|5-5-5-5-5-5-5---|
E|----------------|0---0---0-0-0-0-|3-3-3-3-3-3-3-3-|3-3-3-3-3-3-3---|

Riff 7:
e|----------------|----------------|----------------|5---------------|
B|----------------|----------------|----------------|--5---0---------|
G|7---7---7-7-7-7-|----------------|----------------|------9---------|
D|7---7---7-7-7-7-|2-2-2-2-2-2-2-2-|----------------|----7-----------|
A|5---5---5-5-5-5-|2-2-2-2-2-2-2-2-|0-2-3-4-3-2-0---|----------------|
E|----------------|0-0-0-0-0-0-0-0-|----------------|----------------|

Order:
Intro
Riff 1 x3
Riff 2
Riff 3 x2
Riff 1
Riff 4
Riff 1
Riff 5
Solo
Riff 1 x2
Riff 6 x2
Riff 7
============================================================================
Comments