Aerosmith - Draw The Line Chords & Tabs

 

Draw The Line Chords & Tabs

Aerosmith Chords & Tabs

Version: 3 Type: Bass Tab 0 ratings
1 star 2 stars 3 stars 4 stars 5 stars
comments

Draw The Line Bass Tab

Draw the Line by Aerosmith

(Intro)
G:----------|----------|----------|----------|
D:----------|----------|----------|----------|
A:7--7--7--7|7--7--7--7|7--7--7--7|7--7--7--7|
E:----------|----------|----------|----------|

G:----------|----------|----------|----------|
D:----------|----------|----------|----------|  x2
A:0--2--3--4|3--2--0---|/---------|--12--12--|
E:----------|----------|----------|----------|

G:----------|----------|----------|----------|
D:----------|----------|----------|----------|
A:7--7--7--7|7--7--7--7|7--7--7--7|7--7------|
E:----------|----------|----------|----------|
  |--------These played three times--------|
G:----------|----------|----------|----------|
D:----------|----------|----------|----------|
A:0--2--3--4|3--2--0---|/---------|--12--12--|
E:----------|----------|----------|----------|

G:----------|----------|----------|----------|
D:----------|----------|----------|12-12---12|
A:5--5-5-5-5|7--8-9-8-7|1010101010|----------|
E:----------|----------|----------|----------|

G:----------|----------|----------|----------|
D:----------|----------|----------|----------|  x2
A:0--2--3--4|3--2--0---|/---------|--12--12--|
E:----------|----------|----------|----------|
[ Tab from: http://www.guitartabs.cc/tabs/a/aerosmith/draw_the_line_btab_ver_3.html ]
G:----------|----------|----------|----------|
D:----------|----------|----------|----------|
A:7--7--7--7|7--7--7--7|7--7--7--7|7--7------|
E:----------|----------|----------|----------|
  |--------These played three times--------|
G:----------|----------|----------|----------|
D:----------|----------|----------|----------|
A:0--2--3--4|3--2--0---|/---------|--12--12--|
E:----------|----------|----------|----------|

G:----------|----------|----------|----------|
D:----------|----------|----------|12-12---12|
A:5--5-5-5-5|7--8-9-8-7|1010101010|----------|
E:----------|----------|----------|----------|

G:----------|----------|----------|----------|
D:----------|----------|----------|----------|  x4
A:0--2--3--4|3--2--0---|/---------|--12--12--|
E:----------|----------|----------|----------|

G:----------|----------|----------|----------|
D:----------|----------|----------|----------|
A:7--7--7--7|7--7--7--7|7--7--7--7|7--7------|
E:----------|----------|----------|----------|
  |---------These played two times---------|
G:----------|----------|----------|----------|
D:----------|----------|----------|----------|
A:0--2--3--4|3--2--0---|/---------|--12--12--|
E:----------|----------|----------|----------|

G:----------|----------|----------|----------|
D:----------|----------|----------|12-12---12|  x2
A:5--5-5-5-5|7--8-9-8-7|1010101010|----------|
E:----------|----------|----------|----------|

G:-------------------------------------|
D:-------------------------------------|
A:5-5-5-5-5-5--7-7-7-7-7-7--5-5-5-5-5-5|
E:-------------------------------------|

G:----------|----------|----------|----------|
D:----------|----------|----------|----------|
A:7--7--7--7|7--7--7--7|7--7--7--7|7--7--7--7|
E:----------|----------|----------|----------|

G:----------|----------|----------|----------|
D:----------|----------|----------|----------|  x7
A:0--2--3--4|3--2--0---|/---------|--12--12--|
E:----------|----------|----------|----------|


Thanks, please rate it after you learn it
Tabbed by:
_TheBassist01_
Comments