Aerosmith - Cryin Chords & Tabs

 

Cryin Chords & Tabs

Aerosmith Chords & Tabs

Version: 3 Type: Bass Tab 0 ratings
1 star 2 stars 3 stars 4 stars 5 stars
comments

Cryin Bass Tab

                                    Cryin'                                      


Bass - 6 strings


Hey, I'm lazy so I play everything as simply as possible so I'm gonna be posting more
tabs for people like me. Standard 6 string bass tuning, turn up the lows and make it
heard people..... - Kev
                                                                       
C||-----------------------------|-------------------------------------|
G||-----------------------------|-------------------------------------|
D||-----------------------------|-------------------------------------|
A||--------------------1--3-----|----------------------------1--3-----|
E||--------------------------1--|--3--3-3-3--3--3--3--3------------1--|
B||-----------------------------|-------------------------------------|


                                                                            
-------------------------------------|-------------------------------------|
-------------------------------------|-------------------------------------|
-------------------------------------|-------------------------------------|
----------------------------1--3-----|----------------------------1--3-----|
--3--3-3-3--3--3--3--3------------1--|--3--3-3-3--3--3--3--3------------1--|
-------------------------------------|-------------------------------------|


                                                                     
----------------------------------------|---------------------------|
----------------------------------------|---------------------------|
----------------------------------------|---------------------------|
---------------------1--1-1-1--1--1--1--|---------------------------|
--3--3-3-3--3--3--3---------------------|--3------------------------|
----------------------------------------|---------------------------|


                                                      
--------------------------|--------------------------|
--------------------------|--------------------------|
--------------------------|--------------------------|
--------------------------|--------------------------|
--------------------------|--------------------------|
--------------------------|--------------------------|


                                                         
--------------------------|-----------------------------|
--------------------------|--2--------------------------|
--------------------------|---------------2----------2--|
--------------------------|-----------------------------|
--------------------------|-----------------------------|
--------------------------|-----------------------------|


                                                            
-----------------------------|-----------------------------|
-----------------------------|-----------------------------|
--4--------------------------|---------------7----------7--|
---------------4----------4--|--5--------------------------|
-----------------------------|-----------------------------|
-----------------------------|-----------------------------|


                                                             
---------------------------|--------------------------------|
---------------------------|--------------------------------|
--2------------------------|--------------------------------|
---------------------------|-----------------------5-----5--|
---------------------------|--3----------5------------5-----|
---------------------------|----------------3---------------|


                                                                        
--------------------------------|--------------------------------------|
--------------------------------|--------------------------------------|
--------------------------------|--------------------------------------|
-----------------------5--5--4--|--3--3--3--3--3--3--------------------|
--3----------5------------------|--------------------3--3--3--3--3--3--|
----------------3---------------|--------------------------------------|


                                                                          
---------------------------------------|---------------------------------|
---------------------------------------|---------2-----------------------|
--------------------2--2-2-2-----------|------------0--1--2-----------2--|
---------------------------------------|--0------------------------2-----|
--0--0--0--0--0--0------------0--2--4--|---------------------------------|
---------------------------------------|---------------------------------|


                                                                 
-------------------------------|--------------------------------|
-------------------------------|--------------------------------|
--4----------2--0--------0--2--|--------------------------------|
-------------------------------|--0-----------------------------|
-------------------------------|-----------3--2--0--------------|
-------------------------------|--------------------------5--4--|


                                                                         
--------------------------------------|---------------------------------|
--------------------------------------|---------------------------------|
--------------------------------------|-----------0--1--2-----2------2--|
--------------------5--5--5--5--------|--0-----------------2------------|
--------------------------------3--4--|---------------------------------|
--3--3--3--3--3--3--------------------|---------------------------------|


                                                                 
-------------------------------|--------------------------------|
-------------------------------|-----------2--------------------|
-------------------------0--2--|--------------0--2--------2--2--|
--4----------4--5--------------|--0-----------------------------|
-------------------------------|--------------------------------|
-------------------------------|--------------------------------|


                                                                           
------------------------------------|-------------------------------------|
------------------------------------|-------------------------------------|
--0--0--0--0--0--0--0---------------|-------------------------------------|
---------------------------1--3-----|----------------------------1--3-----|
---------------------------------1--|--3--3-3-3--3--3--3--3------------1--|
------------------------------------|-------------------------------------|


                                                                            
-------------------------------------|-------------------------------------|
-------------------------------------|-------------------------------------|
-------------------------------------|-------------------------------------|
----------------------------1--3-----|----------------------------1--3-----|
--3--3-3-3--3--3--3--3------------1--|--3--3-3-3--3--3--3--3------------1--|
-------------------------------------|-------------------------------------|


                                                                        
--------------------------------------|--------------------------------|
--------------------------------------|--------------------------------|
--------------------------------------|-----------0--1--2--------0--2--|
---------------------1--1--1--1-------|--0-----------------------------|
--3--3-3-3--3--3--3----------------1--|--------------------------------|
--------------------------------------|--------------------------------|


                                                                
------------------------------|--------------------------------|
-------------1----------------|--------------------------------|
--4---------------------------|--0--------0--2-----------2-----|
----------------4----------4--|-----------------0--------------|
------------------------------|-----------------------------4--|
------------------------------|--------------------------------|


                                                                 
-------------------------------|--------------------------------|
-------------------------------|--------------------------------|
-------------2--2-----------2--|--------------------------------|
-------------------------2-----|--0--------4--5--7--------5--7--|
--0----------------------------|--------------------------------|
-------------------------------|--------------------------------|


                                                                
------------------------1--------|-----------------------------|
---------------------------2-----|-----------------------------|
--4----------4-6-----------------|--0----------2---------------|
-----------------4------------4--|----------------0------------|
---------------------------------|-----------------------------|
---------------------------------|-----------------------------|


                                                                     
----------------------------------|---------------------------------|
--4-------------------------------|---------------------------------|
-----2--2----------2--2--2--------|---------------------------------|
----------------------------2--0--|------------------------5-----5--|
----------------------------------|--3--------3--5------------5-----|
----------------------------------|-----------------3---------------|


                                                                    
--------------------------------|----------------------------------|
--------------------------------|----------------------------------|
--------------------------------|----------------------------------|
--------------------------5--3--|--3--3--3--3--3--3----------------|
--3--------3--5-----------------|--------------------3------2------|
-----------------3--------------|----------------------------------|


                                                                         
---------------------------------------|--------------------------------|
---------------------------------------|--------------------------------|
--------------------2--2-2-2-----------|--------------0--2--------------|
---------------------------------------|--0--------4--------2-----------|
--0--0--0--0--0--0------------0--2--4--|-----------------------0--------|
---------------------------------------|--------------------------------|


                                                                 
--------------------------------|-------------------------------|
--------------------------------|-------------------------------|
--------------------------------|-------------------------2--1--|
--------------------------------|-------------------------------|
--2--------2--0-----------3--4--|--5----------5-----------------|
-----------------3--------------|----------------5--------------|


                                                                          
--------------------------------------|---------------------4------------|
--------------------------------------|---------2------------------------|
--0--0--0--0--0--0--0--0--0--0--2--2--|------------0--1--2-------2----2--|
--------------------------------------|--0-------------------------------|
--------------------------------------|----------------------------------|
--------------------------------------|----------------------------------|

[ Tab from: http://www.guitartabs.cc/tabs/a/aerosmith/cryin_btab_ver_3.html ]
                                                                  
-----1---------------2------------|------------------------------|
------------1---------------------|------------------------------|
------------------0---------0--2--|---------------2-----------2--|
--4------------4------------------|--0---------------------2-----|
----------------------------------|------------------------------|
----------------------------------|------------------------------|


                                                                           
------------------------------------|-------------------------------------|
------------------------------------|-------------------------------------|
--0--0--0--0--0--0--0---------------|-------------------------------------|
---------------------------1--3-----|----------------------------1--3-----|
---------------------------------1--|--3--3-3-3--3--3--3--3------------1--|
------------------------------------|-------------------------------------|


                                                                            
-------------------------------------|-------------------------------------|
-------------------------------------|-------------------------------------|
-------------------------------------|-------------------------------------|
----------------------------1--3-----|----------------------------1--3-----|
--3--3-3-3--3--3--3--3------------1--|--3--3-3-3--3--3--3--3------------1--|
-------------------------------------|-------------------------------------|


                                                                               
---------------------------------------|--------------------------------------|
---------------------------------------|--------------------------------------|
---------------------------------------|--------------------------------------|
---------------------1--1--1--1--1--1--|--------------------1--1--1--1--1--1--|
--3--3-3-3--3--3--3--------------------|--------------------------------------|
---------------------------------------|--4--4--4--4--4--4--------------------|


                                                                              
--------------------------------------|--------------------------------------|
--------------------------------------|--------------------------------------|
--------------------------------------|--------------------------------------|
--------------------1--1--1--1--1--1--|--------------------------------------|
--------------------------------------|--4--4--4--4--4--6--------------------|
--4--4--4--4--4--4--------------------|--------------------4--4--4--4--4--4--|


                                       
--------------------------------------|
--------------------------------------|
--2--2--2--2--2--2--2--2--2--2--2--2--|
--------------------------------------|
--------------------------------------|
--------------------------------------|


                                                                              
--------------------4-4-4-4-4-4-4-4-4-4-4--|---------------------------------|
-------------------------------------------|---------2-----------------------|
--2--2--2--2--2--2-------------------------|------------0--1--2-----2--------|
-------------------------------------------|--0------------------2-----------|
-------------------------------------------|---------------------------------|
-------------------------------------------|---------------------------------|


                                                                   
---------1-----------------------|--------------------------------|
------------1--------------------|--------------------------------|
------------------0--------0--2--|--------------------------------|
--4------------4-----------------|--0------0----------------------|
---------------------------------|------------3--2--0------0------|
---------------------------------|--------------------------------|


                                                                        
--------------------------------------|--------------------------------|
--------------------------------------|---------2----------------------|
--------------------0--0--0-----------|------------0--1--2----------2--|
--------------------------------------|--0-----------------------------|
-----------------------------0--2--4--|--------------------------------|
--3--3--3--3--3--3--------------------|--------------------------------|


                                                                   
------------------------------|-----------------------------------|
------------------------------|-----------------------------------|
--4------------0--------0--2--|------------0--1--2-----2----2--2--|
------------------------------|--0------0-----------2-------------|
------------------------------|-----------------------------------|
------------------------------|-----------------------------------|


                                                                              
--------------------2--2--2--2--2--2--|--------------------------------------|
--------------------------------------|--------------------------------------|
--0--0--0--0--0--0--------------------|--0--0--0-----------------------------|
--------------------------------------|-----------3--3--3--2--2--2--1--1--1--|
--------------------------------------|--------------------------------------|
--------------------------------------|--------------------------------------|


                                                                    
----------------------------------|---------1----------------------|
---------2------------------------|--------------------------------|
------------0--1--2-----2--1------|--------------------------------|
--0------------------2------------|--4-----------4--5-----5--------|
----------------------------------|--------------------5-----------|
----------------------------------|--------------------------------|


                                                                         
--------------------------------|---------------------------------------|
--------------------------------|---------------------------------------|
--------------------------------|---------------------0--0--0-----------|
--0------0----------------------|---------------------------------------|
------------3--2--0-------------|------------------------------0--2--4--|
-------------------------4------|--3--3--3--3--3--3-3-------------------|


                                                               
-----------------------------|--------------------------------|
-----------------------------|--------------------------------|
-----------------------------|----------------0----0----0--0--|
--0----------0--2------------|--4----------4------------------|
-----------------------------|--------------------------------|
-----------------------------|--------------------------------|


                                                                              
--------------------------------------|--------------------------------------|
--------------------------------------|--------------------------------------|
--2--2--2--2--2--2--2--2--2--2--2--2--|--0--0--0--0--0--0--0--0--0--0--0--0--|
--------------------------------------|--------------------------------------|
--------------------------------------|--------------------------------------|
--------------------------------------|--------------------------------------|


                                                                           
--2--2--2--2--2--2--2--2--2-----------|-----------------------------------|
-----------------------------2--0-----|-----------------------------------|
-----------------------------------2--|--------------0--2--2--2-2-2----2--|
--------------------------------------|--0--------4-----------------------|
--------------------------------------|-----------------------------------|
--------------------------------------|-----------------------------------|


                                                                      
-----1--------------2-------------|----------------------------------|
----------------------------------|----------------------------------|
-----------------0-------0--0--2--|----------------------------------|
--4-----------4-------------------|--0------0------------------------|
----------------------------------|------------3--2--0----0----0--0--|
----------------------------------|----------------------------------|


                                                                         
--------------------------------------|---------------------------------|
--------------------------------------|-----------2---------------------|
--------------------0--0--0-----------|---------------------------------|
--------------------------------------|--0-----------0--2----2----2--2--|
-----------------------------0--3--4--|---------------------------------|
--3--3--3--3--3--3--------------------|---------------------------------|


                                                                       
--------------------------------|-------------------------------------|
--------------------------------|-------------------------------------|
----------------0----0--0----0--|--2----2--2--2--2--2--2--2--2--2--2--|
--4----------4------------------|-------------------------------------|
--------------------------------|-------------------------------------|
--------------------------------|-------------------------------------|


                                       
--------------------2--2--2--2--2--2--|
--------------------------------------|
--0--0--0--0--0--0--------------------|
--------------------------------------|
--------------------------------------|
--------------------------------------|


                                                                              
--2--2--2--2--2--2--12--11--9------------|-----------------------------------|
-------------------------------11--9--7--|-----------------------------------|
-----------------------------------------|--7--5-------------2----2-------2--|
-----------------------------------------|--------5--------------------2-----|
-----------------------------------------|-----------5----5------------------|
-----------------------------------------|-----------------------------------|


                                                                  
--------------------------------|--------------------------------|
--------------------------------|--------------------------------|
-----------------0-----0--------|--------------------------2--1--|
--4--------0--4-----0-----------|--0-----------------------------|
--------------------------------|-----------3--2--0--------------|
--------------------------------|--------------------------------|


                                                                           
-----------------------------------------|--------------------------------|
-----------------------------------------|--------------------------------|
--0-0-0-0-0--0--0--0-0-0--0--0--0--------|--------------------------------|
-----------------------------------3--2--|--0-----------------------------|
-----------------------------------------|-----------------0--------0--1--|
-----------------------------------------|-----------3--4-----------------|


                                   
---------------------------------||
---------------------------------||
---------------------------------||
---------------------------------||
--2--------2--0------------------||
-----------------3----3--3----3--||
Comments