Aerosmith - Crazy Solo Chords & Tabs

 

Crazy Solo Chords & Tabs

Aerosmith Chords & Tabs

Version: 2 Type: Tab 0 ratings
1 star 2 stars 3 stars 4 stars 5 stars
comments

Crazy Solo Tab

#----------------------------------PLEASE NOTE--------------------------------#
#This file is the author's own work and represents their interpretation of the#
#song. You may only use this file for private study, scholarship, or research.#
#-----------------------------------------------------------------------------#



DATE: 29 TH MARCH 2001
FROM: DAVID-SLASH BUCKETHEAD JOE PERRY-MCKAY
SUBJECT:A/AEROSMITH/CRAZY.SOLO



e|------------------------------------------------------------------
B|------------------------------------------------------------------
G|-------------------------------------2---4-4BU-4BU HOLD---2-4-2~---
D|---------------------4bu-4bd-2~---4-------------------------------
A|--2bu (9 times)---0-----------------------------------------------
E|------------------------------------------------------------------

                                                       < 4 TIMES >

e|-----------------2------7BU--5-----8BU-7BU--7--5--5--------5-5----
B|----------2---5----------------5-----------------------5^7--------
G|----4BU-----------------------------------------------------------
D|------------------------------------------------------------------
A|------------------------------------------------------------------
E|------------------------------------------------------------------


[ Tab from: http://www.guitartabs.cc/tabs/a/aerosmith/crazy_solo_tab_ver_2.html ]
e|--------10----10----10-----10-----10-----10-----17------17--------
B|---5/10----10----10----10-----10-----10-------------17------17----
G|------------------------------------------------------------------
D|------------------------------------------------------------------
A|------------------------------------------------------------------
E|------------------------------------------------------------------



e|---19BU---17----------14------------------------------------------
B|--------------17BU--------17---14---------------------------------
G|------------------------------------16BU----------14--16-14BU-----
D|-------------------------------------------14^16------------------
A|------------------------------------------------------------------
E|------------------------------------------------------------------

                             < 4 TIMES, FAST >

e|-------------------------------17-----------------21BU-21BU-21BU--
B|-----------17BU--17---------------17------------------------------
G|----------------------16BU~---------------------------------------
D|-16--14-----------------------------------------------------------
A|------------------------------------------------------------------
E|------------------------------------------------------------------


          < 8 TIMES >
e|--17--------------------------------------------------------------
B|----------------17------------------------------------------------
G|---------19BU-----------------------------------------------------
D|------------------------------------------------------------------
A|------------------------------------------------------------------
E|------------------------------------------------------------------

I KNOW I MISSED THE "I NEED YOUR LOVE PART" COULDN'T BE BOTHERED
I'VE BEEN LOOKIN FOR THE SOLO TO THIS SONG FOR WHILE ON THE NET WITH NO JOY
SO I DECIDED TO DO IT MYSELF. TOOK  A WHILE BUT I THINK ITS ACTUALLY PERFECT.
MOST OF ALL KEEP ON ROCKIN' CAUSE POP MUSIC IS CRAP1

CHEERS
DAVIE
Comments