Aerosmith - Bogey Man Chords & Tabs

 

Bogey Man Chords & Tabs

Aerosmith Chords & Tabs

Version: 1 Type: Tab 0 ratings
1 star 2 stars 3 stars 4 stars 5 stars
comments

Bogey Man Tab

Bogey Man 
Aerosmith
[ Tab from: http://www.guitartabs.cc/tabs/a/aerosmith/bogey_man_tab.html ]
1:
-------------------- -----------------
---------------5---- -----------------
--4------2/4/6------ --4------2/4/6---
-------------------- -----------------
-------------------- -----------------
-------------------- -----------------
2:
------------ ------------ ------------- -------------
--5b7r------ --5b7r------ --8b10r------ --8b10r------
-------5---- -------6---- --------8---- --------9----
------------ ------------ ------------- -------------
------------ ------------ ------------- -------------
------------ ------------ ------------- -------------
3:
------------------ ---------------- ------------- -----------
--3--3-2----1-2--- --3---2--1---2-- --2--2---0--- ------0----
--2--2-2----1-2--- --2---2--1---2-- --2--2---2--- --1h2p1----
------------------ ---------------- ------------- -----------
------------------ ---------------- ------------- -----------
------------------ ---------------- ------------- -----------


Comments