Aerosmith - Adams Apple Chords & Tabs

 

Adams Apple Chords & Tabs

Aerosmith Chords & Tabs

Version: 2 Type: Tab 0 ratings
1 star 2 stars 3 stars 4 stars 5 stars
comments

Adams Apple Tab

   
this is my first time tabing so plz rate.  if u can bare with this sad example of a tab 
will see that it is 100% perfect. :-P

b= bend
*=slight muffle of strings

INTRO
[ ------5-------3------5--------3------5--------3-------  1-|
[ ------5-------3------5--------3------5--------3-------  1-|
[ ------------------------------------------------------- 2-|
[ ---------2-4b---4-2----2---4b---4-2----2--4b----4----- 3--|
[ 3b-0------4--------------4---------------4----------------|
[ ----------------------------------------------------------|
[ Tab from: http://www.guitartabs.cc/tabs/a/aerosmith/adams_apple_tab_ver_2.html ]
Verse
[ --------------3------5----------3------5----------3------|
[ --------------3------5----------3------5----------3------|
[ ---------------------------------------------------------|
[ ----------4b----4-2----2---4b-----4-2----2----4b----4----|
[ 0--0-4-0-----------------4------------------4------------|
[ ---------------------------------------------------------|

[ -------------------------------------------------------------|
[ -------------------------------------------------------------|
[ -------------------------------------------------------------|
[ -1*-1*-1*-1*-1*-1-1-1-1-1---7-7--7-6-5-4--4--4-4--4--4--4-4--|
[ -0*-0*-0*-0*-0*-0-0-0-0-0---5-5--5-4-3-2--2--2-2--2--2--2-2--|
[ -------------------------------------------------------------|


sry but i forgot the solos and i just dont feel like goin any further right now... i 
u can follow this and that sum1 might b able to tab the bass part soon.
Comments