Aepoc - Tomorrow Chords & Tabs

 

Tomorrow Chords & Tabs

Aepoc Chords & Tabs

Version: 1 Type: Tab 0 ratings
1 star 2 stars 3 stars 4 stars 5 stars
comments

Tomorrow Tab

   
 Repeat these the whole time. 
e|------------------------------------------------------------------
B|------------------------------------------------------------------
G|------------------------------------------------------------------
D|---7---7---7---7---7---7---7---7----------------------------------
A|-5---5---5---5---5---5---5---5-----7---7---7---7---7---7---7---7--
E|---------------------------------5---5---5---5---5---5---5---5----
[ Tab from: http://www.guitartabs.cc/tabs/a/aepoc/tomorrow_tab.html ]
e|------------------------------------------------------------------
B|------------------------------------------------------------------
G|------------------------------------------------------------------
D|---7---7---7---7---7---7---7---7----------------------------------
A|-5---5---5---5---5---5---5---5-----7---7---7---7---5---5---5---5--
E|---------------------------------5---5---5---5---3---3---3---3----

 Guitar 2
Dm, Am, Dm Gm
Comments