Aepoc - Rageahol Chords & Tabs

 

Rageahol Chords & Tabs

Aepoc Chords & Tabs

Version: 1 Type: Tab 0 ratings
1 star 2 stars 3 stars 4 stars 5 stars
comments

Rageahol Tab

   
  intro/verse
  F# G# B C# E E F# G# B G                  
e|---------------------------
B|---------------------------
G|---------------------------
D|---------------------------
A|-----2-4--------------2----
E|-2-4-------0-0-0h2-h4---3--

  chorus pt1
   E  E  F# G# B G  E  E F# G# B G  E  E  F# G# B G  G/G      G
e|-----------------------------------------------------------------
B|-----------------------------------------------------------------
G|-----------------------------------------------------------------
D|-----------------------------------------------------------------
A|-------------2----------------2----------------2-----------------
E|-0x-0x-h2-h4---3--0x-0x-h2-h4---3--0x-0x-h2-h4---3-3/15~~~~3p0--

  chorus pt2
   E  E  F# G# B G  E  E F# G# B G  E  E  F# G# B G  G F  G F F   C C C D C A G G/G
e|----------------------------------------------------------------------------------
B|----------------------------------------------------------------------------------
G|----------------------------------------------------------------------------------
D|---------------------------------------------------5-3~-5h3-3~~~------------------
A|-------------2----------------2----------------2----------------3-3-3h5-3---------
E|-0x-0x-h2-h4---3--0x-0x-h2-h4---3--0x-0x-h2-h4---3------------------------5-3-3/15
[ Tab from: http://www.guitartabs.cc/tabs/a/aepoc/rageahol_tab.html ]
  bassline verse
G|---------------------------------------------------------
D|-------------------------------------5-5-5-4-5-0---------
A|-0-0-0-0-0-5-4-0-0-0-0-5-4-0-0-0-0-0---------------------
E|---------------------------------------------------------

  bassline chorus
G|------------------------------0~~-------------------------------------------0~~~~
D|---------------------------------------------------------------11~~~-------------
A|---------------------------------------------------------------------------------
E|-0-0x-----0-0x-----0-0x-----0-----0-0x-----0-0x-----0-0x-----0-------0-0x--0-----

 guitar interlude
   G# G  F C# D#E D#B
e|---------------------------------------------------------
B|-13-12-10-6-8-9-8----------------------------------------
G|------------------9--------------------------------------
D|----------------------------------------------------------
A|---------------------------------------------------------
E|---------------------------------------------------------

 guitar solo (wah 1/2 cocked)
    pt1                pt2                         pt3
e|---------- ----------------------- -----------------------------------
B|---------- ----------------------- -----------------------------------
G|-4b-3v~~-- -10-10-10-10h12-13-12v- -10-10-10-10h12-12-12-13-12-10-----
D|---------- ----------------------- -------------------------------12--
A|---------- ----------------------- -----------------------------------
E|---------- -----------------------------------------------------------
              pt4                                 pt5
e|------------------------------------- -------------------------
B|------------------------------------- -------------------------
G|-17-17-17-15-15-15-17-17-17-15-15-15--2--3-2------------------
D|------------------------------------- --------3~-2-3b~~~-3-2---
A|------------------------------------- -----------------------3-
E|------------------------------------- -------------------------
Comments