Aepoc - Holding On Chords & Tabs

 

Holding On Chords & Tabs

Aepoc Chords & Tabs

Version: 1 Type: Tab 0 ratings
1 star 2 stars 3 stars 4 stars 5 stars
comments

Holding On Tab

   
  Main Guitar
   F C             G
e|-------------------------------------
B|-6---6---6---6---8---8---8---8-------
G|---5---5---5---5---5---5---5---5-----
D|-------------------------------------
A|-------------------------------------
E|-------------------------------------
[ Tab from: http://www.guitartabs.cc/tabs/a/aepoc/holding_on_tab.html ]
  Main guitar 2
e|-------------------------------------
B|-------------------------------------
G|-------------------------------------
D|-------5---5---------7---7-----------
A|-5\3-3---3---3-3/5-5---5---5---------
E|-------------------------------------

  Verse guitar 
e|------------------------------
B|------------------------------
G|-7-7-xx-5-5-5-5---------------
D|-7-7-xx-5-5-5-5-3-3-3-4/7-7-7-
A|-5-5-xx-3-3-3-3-3-3-3-4/7-7-7-
E|-0-0-xx-0-0-0-0-1-1-1-2/5-5-5-

  Verse guitar 2
e|--------------------------
B|--------------------------
G|-7-7------5-5-------------
D|-7-7-xxxx-5-5-3-3-4/7-7-7-
A|-5-5-xxxx-3-3-3-3-4/7-7-7-
E|-0-0------0-0-1-1-2/5-5-5-
Comments