Aegis - Halik Chords & Tabs

 

Halik Chords & Tabs

Aegis Chords & Tabs

Version: 2 Type: Chords 0 ratings
1 star 2 stars 3 stars 4 stars 5 stars
comments

Halik Chords

   
Aegis
Halik

I just did this one on piano, so please bear with me.
Sounds fine by guitar then. 
I miss my ex. haha

F      G       C       F
Ayoko sana na ikaw ay mawawala
F         G                C
Mawawasak lamang ang aking mundo
F            G
Ngunit anong magagawa
C                     F
Kung talagang ayaw mo na
F              G               F-C
Sino ba naman ako para pigilan ka?


C                F            G              C
Lumayo ka man ay maiiwan ang bakas ng ating pagmamahalan
C                  F         G          C
Ang awiting ito ay alaala na hindi kita malilimutan
Am                      D              Em
Pagkat ikaw ang tanging laman ng aking mundo
F                  G
Ng aking puso't ng aking buhay

C       F      G
Ang halik mo, namimiss ko
C       F      G
Ang halik mo, namimiss ko
 G               C
Bakit iniwan mo ako?


Nasasaktan ako oh baby, sa tuwing nakikita ka
Naninibugho ako oh baby, pag may kasama kang iba
[ Tab from: http://www.guitartabs.cc/tabs/a/aegis/halik_crd_ver_2.html ]
Solo:
e|--12-12-10----------------------------|
b|-----------13----13-13-15-15/17\15----|
g|--------------------------------------|
d|--------------------------------------|
a|--------------------------------------|
e|--------------------------------------|

e|----------------12-13-15-13---13-15-17-15-15h7p15----|
b|--15-17-18-17-------------------------------------18-|
g|-----------------------------------------------------|
d|-----------------------------------------------------|
a|-----------------------------------------------------|
e|-----------------------------------------------------|

e|------------17---15--|
b|--18-18-20-----------|
g|---------------------|
d|---------------------|
a|---------------------|
e|---------------------|



C       F      G
Ang halik mo, namimiss ko
C       F      G
Ang halik mo, namimiss ko
 G               C
Bakit iniwan mo ako?


F      G       C       F
Ayoko sana na ikaw ay mawawala
F         G                C
Mawawasak lamang ang aking mundo
F            G
Ngunit anong magagawa
C                     F
Kung talagang ayaw mo na
               G               F-C
Sino ba naman ako para pigilan ka?

C       F      G
Ang halik mo, namimiss ko
C       F      G
Ang halik mo, namimiss ko
 G               C
Bakit iniwan mo ako?
Comments