Adolescents - Wrecking Crew Chords & Tabs

 

Wrecking Crew Chords & Tabs

Adolescents Chords & Tabs

Version: 1 Type: Tab 0 ratings
1 star 2 stars 3 stars 4 stars 5 stars
comments

Wrecking Crew Tab

song: wrecking crew
by: adolescents

h means hammer on

intro
E---------------------------|
B---------------------------|
G-----------0------------0--|
D-----2-----------2---------|
A--0-----3-----0-----0h3----|
E---------------------------|
[ Tab from: http://www.guitartabs.cc/tabs/a/adolescents/wrecking_crew_tab.html ]
chorus
E--------------------------------------------------|
B--------------------------------------------------|
G--------------------------------------------------|
D-------------------------------7-777777777777777--|
A--101010101010101010101010-888-5-555555555555555--|
E---8-8-8-8-8-8-8-8-8-8-8-8-666--------------------|

verse1
E-----------------------|
B-----------------------|
G-----------------------|
D-----------------------|
A--10-1010-88-77-77777--|
E---8--8-8-66-55-55555--|

verse2
E-----------------|
B-----------------|
G-----------------|
D-----------------|
A--7777-10101010--|
E--5555--8-8-8-8--|

timing:
intro...6x
chorus..1x
verse1..4x
verse2..8x
chorus..1x
verse1..4x
verse2..8x
chorus..1x
verse1..2x
intro...6x
chorus..1x
Comments