Adolescents - La Girl Chords & Tabs

 

La Girl Chords & Tabs

Adolescents Chords & Tabs

Version: 1 Type: Tab 0 ratings
1 star 2 stars 3 stars 4 stars 5 stars
comments

La Girl Tab

song: la girl
by: adolescents

intro
E------------------------------------|
B------------------------------------|
G------------------------------------|
D------------------------------------|
A--44-444-44-44444--44-444-44-44444--|
E--22-222-22-22222--22-222-22-22222--|
all palm muted

verse1
E-------------------------------------------------------------------|
B-------------------------------------------------------------------|
G-------------------------------------------------------------------|
D------------------55-555-44-44444----------------------------------|
A--44-444-77-77777-33-333-22-22222-44-444-55-55555-22-222-22-22222--|
E--22-222-55-55555-----------------22-222-33-33333-00-000-00-00000--|
[ Tab from: http://www.guitartabs.cc/tabs/a/adolescents/la_girl_tab.html ]
verse2
E-------------------------------------------------------------------|
B-------------------------------------------------------------------|
G-------------------------------------------------------------------|
D------------------55-555-44-44444----------------------------------|
A--44-444-77-77777-33-333-22-22222-44-444-55-55555-22-222-22-22222--|
E--22-222-55-55555-----------------22-222-33-33333-00-000-00-00000--|
...\ pm /..........\ pm /..........\ pm /

chorus
E---------------------------------------------------------------------|
B---------------------------------------------------------------------|
G---------------------------------------------------------------------|
D------7---5----1111--7---5--------7---5----1111--7---5--------7---5--|
A--44--5---3--0--9-9--5---3--0-44--5---3--0--9-9--5---3--0-44--5---3--|
E--22---------0--------------0-22---------0--------------0-22---------|

E-----------------------------------------------|
B-----------------------------------------------|
G-----------------------------------------------|
D----1111--7---5--------------------------------|
A--0--9-9--5---3--0-4-4-4-4-4-4-4-4--5-5-5-5-5--|
E--0--------------0-2-2-2-2-2-2-2-2--3-3-3-3-3--|

timing:
intro...1x
verse1..2x
verse2..2x
chorus..1x
verse1..2x
verse2..2x
chorus..1x
verse1..1x
Comments