Adicts - This Week Chords & Tabs

 

This Week Chords & Tabs

Adicts Chords & Tabs

Version: 1 Type: Bass Tab 0 ratings
1 star 2 stars 3 stars 4 stars 5 stars
comments

This Week Bass Tab

-----------------------------------------------------------------------------
THIS WEEK - THE ADICTS
-----------------------------------------------------------------------------

Tabbed by Kunders (Kunders@new.rr.com)

G|-----|X12
D|-1---|
A|---2-|
E|-----|

G|----------|X8
D|-111------|
A|-----222-|
E|----------|
[ Tab from: http://www.guitartabs.cc/tabs/a/adicts/this_week_btab.html ]
G|-----------------------------|x2
D|-111-----111-------0-1---0-1-|
A|-----222-----222-2-----2-----|
E|-----------------------------|

G|-------|
D|-111---|
A|-----2-|
E|-------|

G|-----------------------------|
D|-111-----111-------0-1---0-1-|
A|-----222-----222-2-----2-----|
E|-----------------------------|

G|-------------------------------|
D|-111-----111-------0-1---0-1-2-|
A|-----222-----222-2-----2-------|
E|-------------------------------|


-----------------------------------------------------------------------------
Comments