Adicts - Straight Jacket Chords & Tabs

 

Straight Jacket Chords & Tabs

Adicts Chords & Tabs

Version: 1 Type: Tab 0 ratings
1 star 2 stars 3 stars 4 stars 5 stars
comments

Straight Jacket Tab

Band:Adicts
Song:Straight Jacket

tabbed by jam9383@yahoo.com

Intro x2

e-17----17----17----17----17---------------------------------------
B----15----15----15----15----15------------------------------------
G------------------------------------------------------------------
D------------------------------------------------------------------
A------------------------------------------------------------------
E------------------------------------------------------------------

Verse

e------------------------------------------------------------------
B------------------------------------------------------------------
G-7-7--------------------------------------------------------------
D-7-7-7-7-9-9-9-7-7------------------------------------------------
A-5-5-7-7-9-9-9-7-7------------------------------------------------
E-----5-5-7-7-7-5-5------------------------------------------------

Chorus

e------------------------------------------------------------------
B------------------------------------------------------------------
G-3----------------------------------------------------------------
D-3-5-x-x-x-x-x----------------------------------------------------
A-1-5-x-x-x-x-x----------------------------------------------------
E---3-x-x-x-x-x----------------------------------------------------
[ Tab from: http://www.guitartabs.cc/tabs/a/adicts/straight_jacket_tab.html ]
e-12-15-12----------12---------------------------------------------
B----------13-13-13------------------------------------------------
G------------------------------------------------------------------
D------------------------------------------------------------------
A------------------------------------------------------------------
E------------------------------------------------------------------

e------------------------------------------------------------------
B------------------------------------------------------------------
G--7-7-6-6-5-5-4-4-3-3-2-2-2---------------------------------------
D--7-7-6-6-5-5-4-4-3-3-2-2-2---------------------------------------
A--5-5-4-4-3-3-2-2-1-1-0-0-0---------------------------------------
E------------------------------------------------------------------

e-0-0-0-0-5-5-0-0--------------------------------------------------
B------------------------------------------------------------------
G------------------------------------------------------------------
D------------------------------------------------------------------
A------------------------------------------------------------------
E------------------------------------------------------------------

Middle of song-
e-17----17----17----17----17----17----17--17--17--17--17-----------
B----15----15----15----15----15----15---15--15--15--17-------------
G------------------------------------------------------------------
D------------------------------------------------------------------
A------------------------------------------------------------------
E------------------------------------------------------------------

If any corrections are needed contact me
Comments