Adicts - Love Sucks Chords & Tabs

 

Love Sucks Chords & Tabs

Adicts Chords & Tabs

Version: 2 Type: Tab 0 ratings
1 star 2 stars 3 stars 4 stars 5 stars
comments

Love Sucks Tab

   
-------------------------------------------------------------------------------
			     Love Sucks - The Adicts
-------------------------------------------------------------------------------
Tabbed by:derek c
Email:ishotthepolice@yahoo.com

Tuning:standard
Verse
e|---------------------------------------------------------------------------|
B|---------------------------------------------------------------------------|
G|---------------------------------------------------------------------------|
D|----6-6-6-6-6-6-6-6-2-2-2-2-2-2-2-2-6-6-6-6-6-6-6-6-2-2-2-2-2-2-2-2--------|
A|----6-6-6-6-6-6-6-6-2-2-2-2-2-2-2-2-6-6-6-6-6-6-6-6-2-2-2-2-2-2-2-2-X2-----|
E|----4-4-4-4-4-4-4-4-0-0-0-0-0-0-0-0-4-4-4-4-4-4-4-4-0-0-0-0-0-0-0-0--------|
[ Tab from: http://www.guitartabs.cc/tabs/a/adicts/love_sucks_tab_ver_2.html ]
e|---------------------------------------------------------------------------|
B|---------------------------------------------------------------------------|
G|---------------------------------------------------------------------------|
D|----7-7-7-7-7-7-7-7-4-4-4-4-4-4-4-4-7-7-7-7-7-7-7-7-4-4-4-4-4-4-4-4--------|
A|----7-7-7-7-7-7-7-7-4-4-4-4-4-4-4-4-7-7-7-7-7-7-7-7-4-4-4-4-4-4-4-4--------|
E|----5-5-5-5-5-5-5-5-2-2-2-2-2-2-2-2-5-5-5-5-5-5-5-5-2-2-2-2-2-2-2-2--------|
Chorus
e|---------------------------------------------------------------------------|
B|---------------------------------------------------------------------------|
G|----9-9-9-9-9-9-9-9-9------------------------------------------------------|
D|----9-9-9-9-9-9-9-9-9-7-7-7-7-7-7-7-7--X4----------------------------------|
A|----7-7-7-7-7-7-7-7-7-7-7-7-7-7-7-7-7--------------------------------------|
E|----------------------5-5-5-5-5-5-5-5--------------------------------------|


| /  slide up
| \  slide down
| h  hammer-on
| p  pull-off
| ~  vibrato
| +  harmonic
| x  Mute note
===============================================================================
Comments