Adicts - Lets Go Chords & Tabs

 

Lets Go Chords & Tabs

Adicts Chords & Tabs

Version: 1 Type: Tab 0 ratings
1 star 2 stars 3 stars 4 stars 5 stars
comments

Lets Go Tab

   
-----------------------------------------------------------------------------
			     Let's Go - The Adicts
-----------------------------------------------------------------------------


Tabbed by:David Manalo
Email:fruitbrute69@yahoo.com   
send me all your praise to me, bad or good. Just listen to the song to get the right
beat. I am sure I tabbed it 99% correct. if thats not good enough for you, then f^ck
off.

Tuning:standard
                        INTRO/CHORUS
                 
letsgoletsgo!    lets go!            nonstop!
e|--------------------------------------------------------------------|
B|--------------------------------------------------------------------|
G|--------------------------------------------------------------------|
D|-------------5-3-3-3--3-2-0--2-3-2----------------------------------|
A|----0-0-0-0------------------------5-7-5--3-2-3--5------------------|
E|--------------------------------------------------------------------|
[ Tab from: http://www.guitartabs.cc/tabs/a/adicts/lets_go_tab.html ]
                lets go!             nonstop!
e|--------------------------------------------------------------------|
B|--------------------------------------------------------------------|
G|--------------------------------------------------------------------|
D|-------------5-3-3-3--3-2-0--2-3-2--3-5-3--5-7-5-7------------------|
A|----0-0-0-0----------------------------------------0----------------|
E|--------------------------------------------------------------------|

                       
                         VERSE

 under the light..
e|--------------------------------------------------------------------|
B|--------------------------------------------------------------------|
G|---x-x-x-x-x-x-x-7-7-7-7-7-7----------------------------------------|
D|---x-x-x-x-x-x-x-7-7-7-7-7-7-7-7-7-7-7-7----------------------------|
A|---x-x-x-x-x-x-x-5-5-5-5-5-5-7-7-7-7-7-7----------------------------|
E|-----------------------------5-5-5-5-5-5----------------------------|

         RIFF
lets go lets go! whoa! lets go lets go! wwhoa!
e|----------------------|
B|-----------3----------|
G|----5------2----------|
D|----5------0----------|
A|----3-----------------|
E|----------------------|

         ENDING
e|----------------------|
B|----------------------|
G|-------------5\2------|
D|-------------5\2------|
A|------0------3\0------|
E|----------------------|





| /  slide up
| \  slide down
| h  hammer-on
| p  pull-off
| ~  vibrato
| +  harmonic
| x  Mute note
=============================================================================
Comments