Adicts - Joker In The Pack Chords & Tabs

 

Joker In The Pack Chords & Tabs

Adicts Chords & Tabs

Version: 1 Type: Tab 0 ratings
1 star 2 stars 3 stars 4 stars 5 stars
comments

Joker In The Pack Tab

Band:Adicts
Song:Joker In the Pack

tabbed by jam9383@yahoo.com


Intro/Verse

e---------------------------------------------------------------------|
B---------------------------------------------------------------------|
G----------------------------------10-10-10-10-10-10--9-9-9-7-7-7-----|
D---10-10-10-10-10-10--9-9-9-9-9-9-10-10-10-10-10-10--9-9-9-7-7-7-----|
A---10-10-10-10-10-10--9-9-9-9-9-9-8--8--8--8--8--8---7-7-7-5-5-5-----|
E---8---8--8--8--8--8--7-7-7-7-7-7------------------------------------|
[ Tab from: http://www.guitartabs.cc/tabs/a/adicts/joker_in_the_pack_tab.html ]
    PM-----------------------------------------------------------------|PM
e----------------------------------------------------------------------|
B----------------------------------------------------------------------|
G----------------------------------10-10-10-10-10-10--9-9-9-7-7-7------|
D---10-10-10-10-10-10--9-9-9-9-9-9-10-10-10-10-10-10--9-9-9-7-7-7------|
A---10-10-10-10-10-10--9-9-9-9-9-9-8--8--8--8--8--8---7-7-7-5-5-5------|
E---8---8--8--8--8--8--7-7-7-7-7-7-------------------------------------|


Chorus

e---------------------------------------------------------------------|
B---------------------------------------------------------------------|
G----------------------------------12-12-12-12-12-12---10-10-10-9-9-9-|
D--9-9-9-9-9-9-9-10-10-10-10-10-10-12-12-12-12-12-12---10-10-10-9-9-9-|
A--9-9-9-9-9-9-9-10-10-10-10-10-10-10-10-10-10-10-10---8--8--8--7-7-7-|
E--7-7-7-7-7-7-7-8--8--8--8--8--8-------------------------------------|

If any corrections are needed contact me
Comments