Adicts - Fuck It Up Chords & Tabs

 

Fuck It Up Chords & Tabs

Adicts Chords & Tabs

Version: 1 Type: Tab 0 ratings
1 star 2 stars 3 stars 4 stars 5 stars
comments

Fuck It Up Tab

Band: Adicts
Song: Fuck it Up


tabbed by jam9383@yahoo.com


Verse

e---------------------------------------------------------------------|
B---------------------------------------------------------------------|
G--12-12---------12-12------------------------------------------------|
D--12-12--12-12--12-12--10-10-----------------------------------------|
A--10-10--12-12--10-10--10-10-----------------------------------------|
E---------10-10---------8--8------------------------------------------|

Chorus

e---------------------------------------------------------------------|
B---------------------------------------------------------------------|
G--12-12-12-12-12-12--------------------------------------------------|
D--12-12-12-12-12-12-10-10-10-10-10-10--------------------------------|
A--10-10-10-10-10-10-10-10-10-10-10-10--------------------------------|
E--------------------8--8--8--8--8--8---------------------------------|

Bridge

e---------------------------------------------------------------------|
B---------------------------------------------------------------------|
G--12-12-11-11-9-9-7-7-5-5-5-5-9-7------------------------------------|
D--12-12-11-11-9-9-7-7-5-5-5-5-9-7------------------------------------|
A--10-10-9--9--7-7-5-5-3-3-3-3-7-5------------------------------------|
E---------------------------------------------------------------------|
[ Tab from: http://www.guitartabs.cc/tabs/a/adicts/fuck_it_up_tab.html ]
e---------------------------------------------------------------------|
B---------------3--5--3-----------------------------------------------|
G---4-5----4-5--------------------------------------------------------|
D---------------------------------------------------------------------|
A---------------------------------------------------------------------|
E---------------------------------------------------------------------|

Ringing Note

B----8----------------------------------------------------------------|

Pre-Break

e---------------------------------------------------------------------|
B---------------------------------------------------------------------|
G--7-7-7-7-7-7--------------------------------------------------------|
D--7-7-7-7-7-7--------------------------------------------------------|
A--5-5-5-5-5-5--------------------------------------------------------|
E---------------------------------------------------------------------|

Break

e---------------------------------------------------------------------|
B---------------------------------------------------------------------|
G-12-12-12-12-12-9-9-9-9-9-7-7-7-7-7-5-5-5-5-5------------------------|
D-12-12-12-12-12-9-9-9-9-9-7-7-7-7-7-5-5-5-5-5------------------------|
A-10-10-10-10-10-7-7-7-7-7-5-5-5-5-5-3-3-3-3-3------------------------|
E---------------------------------------------------------------------|

any comments/corrections e-mail,rate please
Comments