Adicts - Bad Boy Chords & Tabs

 

Bad Boy Chords & Tabs

Adicts Chords & Tabs

Version: 1 Type: Tab 0 ratings
1 star 2 stars 3 stars 4 stars 5 stars
comments

Bad Boy Tab

Band:Adicts
Song:Bad Boy

tabbed by jam9383@yahoo.com


Intro

e---------------------------------------------------------------------|
B---------------------------------------------------------------------|
G----2-4-5-5\7\9\10\12-12\14-14--5-5-5---5--12-11-12------------------|
D--5-2-4-5------------------------------------------------------------|
A--5-0-2-3------------------------------------------------------------|
E--3------------------------------------------------------------------|

Verse

e---------------------------------------------------------------------|
B---------------------------------------------------------------------|
G---------------------------------------------------------------------|
D--------10-------9---7--------7---10--------9---5--------------------|
A--5-7-9-10-------9---7--------7---10--------9---5--------------------|
E--3-5-7-8--------7---5--------5---8---------7---3--------------------|

Chorus
[ Tab from: http://www.guitartabs.cc/tabs/a/adicts/bad_boy_tab.html ]
e---------------------------------------------------------------------|
B---------------------------------------------------------------------|
G--10---12--------------------10----12--------------------------------|
D--10---12---10--10-10-9-7----10----12---10--10-10-9-7----------------|
A--8----10---10--10-10-9-7----8-----10---10--10-10-9-7----------------|
E------------8---8--8--7-5---------------8----8--8-7-5----------------|

e---------------------------------------------------------------------|
B---------------------------------------------------------------------|
G--11--9---7------------11---9---7------------------------------------|
D---------------------------------------------------------------------|
A---------------------------------------------------------------------|
E---------------------------------------------------------------------|

Solo

x2
e---------------------------------------------------------------------|
B---------------------------------------------------------------------|
G-5\7\9\10\12-12\14-14--5-5-5---5/-12-11-12---------------------------|
D---------------------------------------------------------------------|
A---------------------------------------------------------------------|
E---------------------------------------------------------------------|

e---------------------------------------------------------------------|
B-5\7\9\10\12-12\14-14--5-5-5---5--12-11-12--12-10-9-7-5~-------------|
G---------------------------------------------------------------------|
D---------------------------------------------------------------------|
A---------------------------------------------------------------------|
E---------------------------------------------------------------------|

any comments/corrections needed contact me, please rate
Comments